Song name
# A B C D E F G H I J K L M N O P Q R S T U V W X Y Z

Rainbow - Man On The Silver Mountain tab

-------------------------------------------------------------------------------
		     Man on the Silver Mountain - Rainbow
-------------------------------------------------------------------------------
Tabbed by: Dorian Gray

Tuning: Standard


e|----------------------------------------------------------------------|
B|----------------------------------------------------------------------|
G|--5b7--5b7--5b7--5b7--5b7r5p3-----3-----------3-----3-----3--2-----5--|
D|-------------------------------5-----5--3--5-----5-----5--------5-----|
A|----------------------------------------------------------------------|
E|----------------------------------------------------------------------|

e|-----------3-----3h5p3-----6-----3h5p3-----6-----3h5p3-----6-----3h5p3-----6----3h5p3-----3-------|
B|--3--3--6-----6---------6-----6---------6-----6---------6-----6---------6--------------6-----6/8--|
G|--------------------------------------------------------------------------------------------------|
D|--------------------------------------------------------------------------------------------------|
A|--------------------------------------------------------------------------------------------------|
E|--------------------------------------------------------------------------------------------------|


e|----------------------------------------------------------------------------------------------------|
B|--6--8b11r8--6----------------------------------------3--6b8r6--3--8b10r8--6--b10r8p6--b10r8p6h8p6--|
G|----------------7--5--3----3h5p3\2p0----3b5r3/5b7r5-------------------------------------------------|
D|----------------------------------------------------------------------------------------------------|
A|----------------------------------------------------------------------------------------------------|
E|----------------------------------------------------------------------------------------------------|


e|--8b10r8--6--8--6h8p6\5--6--5----------------------------------------------------|
B|-------------------------------8p6h8p6-------------------------------------------|
G|----------------------------------------7p5--7p5\3--5--3h5p3\2--3p2-----2-----5--|
D|---------------------------------------------------------------------5-----3-----|
A|---------------------------------------------------------------------------------|
E|---------------------------------------------------------------------------------|


e|------------3-----------3-----5--6--3h5p3-----3-------3--5--6--5h6p5-----5h6p5----------------------|
B|---------------3--6--5-----3---------------6-----6p3------------------8---------8--6--8b10r8--8--6--|
G|--5b7r5--3------------------------------------------------------------------------------------------|
D|----------------------------------------------------------------------------------------------------|
A|----------------------------------------------------------------------------------------------------|
E|----------------------------------------------------------------------------------------------------|

e|-------8b10--8b10--8b10--8b10--|
B|--8p6--------------------------|
G|-------------------------------|
D|-------------------------------|
A|-------------------------------|
E|-------------------------------|
Tap to rate this tab
# A B C D E F G H I J K L M N O P Q R S T U V W X Y Z