Song name
# A B C D E F G H I J K L M N O P Q R S T U V W X Y Z

Raine Maida - Sex Love And Honey tab

----------------------------------------------------------------------------
			     Sex Love and Honey - Raine Maida
----------------------------------------------------------------------------
Tabbed by:waychee
Email:rvj11@hotmail.com

Tuning:drop the low E string down to Eflat

Verse:
e|---------------------------------------------------------------------|
B|---------------------------------------------------------------------|
G|-------0---------------0---------------0-------------------2---------|
D|---2-------2---2---2-------2---2---1------1---1---1----3-------3---3-|x5
A|---------------------------------------------------------------------|
E|-1---1---1---1---1---1---1---1---0---0---0---0---0---2---2---2---2---|

e|-------------------------------------------------------|
B|-------------------------------------------------------|
G|-------0---------------0---------------0---------------|
D|---2-------2---2---2-------2---2---1------1---1---1----|
A|-------------------------------------------------------|
E|-1---1---1---1---1---1---1---1---0---0---0---0---0---2-|

Chorus:
e|-----------------------------------------------------------|
B|-----------------------------------------------------------|
G|-------3-------------7-----5-------2-----------3---3p2-----|
D|---5-------5---5---8-----7-----3-------3---3-----------3---|x2
A|-----------------------------------------------------------|
E|-4---4---4---4---7-----6-----2---2---2---2---2-------------|

e|--------------------------------------------------------------|
B|--------------------------------------------------------------|
G|-------3--------------9-----7-------2-----------3---3p2-------|
D|---5-------5---5---10-----8-----3-------3---3-----------3-----|
A|--------------------------------------------------------------|
E|-4---4---4---4---9------7-----2---2---2---2---2---------------|

e|-----------------------------------------------------------|
B|-----------------------------------------------------------|
G|-------3-------------7-----5-------2-----------3---3p2-----|
D|---5-------5---5---8-----7-----3-------3---3-----------3---|
A|-----------------------------------------------------------|
E|-4---4---4---4---7-----6-----2---2---2---2---2-------------|

Verse 2:

e|---------------------------------------------------------------------|
B|---------------------------------------------------------------------|
G|-------0---------------0---------------0-------------------2---------|
D|---2-------2---2---2-------2---2---1------1---1---1----3-------3---3-|x5
A|---------------------------------------------------------------------|
E|-1---1---1---1---1---1---1---1---0---0---0---0---0---2---2---2---2---|

e|-------------------------------------------------------|
B|-------------------------------------------------------|
G|-------0---------------0---------------0---------------|
D|---2-------2---2---2-------2---2---1------1---1---1----|
A|-------------------------------------------------------|
E|-1---1---1---1---1---1---1---1---0---0---0---0---0---2-|

Chorus:

e|-----------------------------------------------------------|
B|-----------------------------------------------------------|
G|-------3-------------7-----5-------2-----------3---3p2-----|
D|---5-------5---5---8-----7-----3-------3---3-----------3---|x2
A|-----------------------------------------------------------|
E|-4---4---4---4---7-----6-----2---2---2---2---2-------------|

e|--------------------------------------------------------------|
B|--------------------------------------------------------------|
G|-------3--------------9-----7-------2-----------3---3p2-------|
D|---5-------5---5---10-----8-----3-------3---3-----------3-----|
A|--------------------------------------------------------------|
E|-4---4---4---4---9------7-----2---2---2---2---2---------------|

e|-----------------------------------------------------------|
B|-----------------------------------------------------------|
G|-------3-------------7-----5-------2-----------3---3p2-----|
D|---5-------5---5---8-----7-----3-------3---3-----------3---|
A|-----------------------------------------------------------|
E|-4---4---4---4---7-----6-----2---2---2---2---2-------------|

Bridge:
e|-----------------------------------------------------------------------|
B|-----------------------------------------------------------------------|
G|-------8------------------8-----------------7---------------7----------|
D|--10-------10---10----10------10---10---8-------8---8---8-------8---8--|
A|-----------------------------------------------------------------------|
E|9----9---9----9----9----9---9----9----7---7---7---7---7---7---7---7----|

e|------------------------------------------------------------------|
B|------------------------------------------------------------------|
G|-------8------------------8---------------7-----5-------3---------|
D|---10------10---10---10-------10---10---8-----6-----5-------5---5-|
A|------------------------------------------------------------------|
E|9----9---9----9----9----9---9----9----7-----5-----4---4---4---4---|

e|------------------|
B|------------------|
G|-------3----------|
D|---5-------5---5--|repeat bridge twice, except the second time add one 
A|------------------|last G on the 6th string(4th fret 6th string)
E|-4---4---4---4----|

Musical break then Chorus:
e|---------------------------------------------------------------------|
B|---------------------------------------------------------------------|
G|-------0---------------0---------------0-------------------2---------|
D|---2-------2---2---2-------2---2---1------1---1---1----3-------3---3-|x2
A|---------------------------------------------------------------------|
E|-1---1---1---1---1---1---1---1---0---0---0---0---0---2---2---2---2---|


e|----------------------------------|
B|----------------------------------|
G|-3----7--5--2--------3----7--5--2-|
D|-5----8--7--3--------5----8--7--3-|x2
A|----------------------------------|
E|-4----7--6--2--------4----7--6--2-|

e|-----------------------------------------------------------|
B|-----------------------------------------------------------|
G|-------3-------------7-----5-------2-----------3---3p2-----|
D|---5-------5---5---8-----7-----3-------3---3-----------3---|x8 then fade
A|-----------------------------------------------------------|
E|-4---4---4---4---7-----6-----2---2---2---2---2-------------|

Fighter Planes running round my head
Running round my head
I gotta go, go, go
The sex love honey that I taste
honey makes me wait
Honey says she's late
A love heart hanging by a thread
hanging by a thread
I gotta save it, save it
Jack and Jill left the golden state
Theres nothing left to say
Nothing left to say

But I, I dont feel like I felt before
Its not happening now
My mother is at my door
Its not happening
Now that youre leaving
I love you like never before
Oh, this is not
This is not happening now
Cant be happening now

Love hope heroes that can save
Heroes that can save
You gotta know know know know
Laugh hurt feelings misbehave
Feeling like a wave
You gotta brave it, brave it
Up down give me all the blame
Ill take all the blame
Im gonna take it, take it
Im begging but you wont let me explain
Ive one foot in the grave
One foot in this grave

But I, I dont feel like I felt before
Its not happening now
My mother is at my door
Its not happening
Now that youre leaving
I love you like never before
Oh, this is not
This is not happening now
Cant be happening

When you feel like your alone inside
And you beg but she wont take you there
And you cant find any wrong from right
One solution is you dont let your self ever care
Ever care

Oh I dont feel like I felt before
Its not happening now
My mother is at my door
Its not happening now
This isn't happening now
This is when
She runs to the mountains
She runs to the tide
We are trying to turn it up
like the fourth of July
With the doctors on call
Don't forget Mothers Day
This nurse is a wreck
We all start to fade away
This isn't happening now
Can't be happening now
It's not happening now

| /  slide up
| \  slide down
| h  hammer-on
| p  pull-off
| ~  vibrato
| +  harmonic
| x  Mute note
============================================================================
Tap to rate this tab
# A B C D E F G H I J K L M N O P Q R S T U V W X Y Z