Song name
# A B C D E F G H I J K L M N O P Q R S T U V W X Y Z

Raine Maida - One Second Chance tab

Author/Artist: Raine Maida
Title: One Second Chance
Album: The Hunter's Lullaby
Transcribed by: quikclik2 (quikclik2@netzero.com)
There's alot of piano in this one, if you're playing solo,
 just play around with the chords till you find
something that works for you.  This is just what I use.

------------------------------------|-------------|---------------------------|
------------------------------------|-------------|---------------------------|
------------------------------------|-5--2--3-----|7-7-7-7-----------5-5-5-5--|
-10\7--8--10\7--8--10\7--8--10\7--5-|-7--4--5-----|7-7-7-7-7-8-8-8-8-5-5-5-5--|
------------------------------------|-7--4--5-----|5-5-5-5-7-8-8-8-8-3-3-3-3--|
-8-\5--6--8-\5--6--8-\5--6--8-\5--3-|-5--2--3-----|--------5-6-6-6-6----------|
 Verse 1                              Pre Chorus   Chorus

-----------|------------------------------------------------------------------|
-----------|------------------------------------------------------------------|
-----------|--2-2-2-2-3-3-3-3-2-2-2-2-3-3-3-3-2-2-2-2-3-3-3-3-2-2-2-2---------|
-5-4-4-4-4-|--2-2-2-2-3-3-3-3-2-2-2-2-3-3-3-3-2-2-2-2-3-3-3-3-2-2-2-2-5-5-5-5-|
-5-4-4-4-4-|--0-0-0-0-1-1-1-1-0-0-0-0-1-1-1-1-0-0-0-0-1-1-1-1-0-0-0-0-5-5-5-5-|
-3-2-2-2-2-|----------------------------------------------------------3-3-3-3-|
              Verse 2
Tap to rate this tab
 
# A B C D E F G H I J K L M N O P Q R S T U V W X Y Z