Song name
# A B C D E F G H I J K L M N O P Q R S T U V W X Y Z

Raine Maida - The Less I Know tab

Author/Artist: Raine Maida
Title: The Less I Know
Album: The Hunter's Lullaby
Transcribed by: quikclik2 (quikclik2@netzero.com)
Drop D Tunning

-------------------------------------------------|----------------------------|
----------------------0--------------------------|----------------------------|
---------0--------------0---------0--------------|---0-------2p0-------0------|
---3-------3---2------------3-------3---2------5-|-----3---------3-------2----|
-------------------------------------------------|----------------------------|
-0---0-3-----2---2/-5-----0---0-3-----2---2/-5---|-0-----0-3---------2-----2/-|
 Verse/Chorus                                      Breakdown

------------------------------------------------------------------------------|
---0--------------------------------------------------------------------------|
-----0------------------------------------------------------------------------|
-------5----------------------------------------------------------------------|
------------------------------------------------------------------------------|
-5----------------------------------------------------------------------------|
Tap to rate this tab
 
# A B C D E F G H I J K L M N O P Q R S T U V W X Y Z