Guitaretab - guitar tabs
Song name
# A B C D E F G H I J K L M N O P Q R S T U V W X Y Z

Rains - Look In My Eyes tab

----------------------------------------------------------------------------
                              Look In My Eyes
                                   Rains
----------------------------------------------------------------------------

Look in my eyes by rains was one of the songs that I didnít have to get use to like most
the other songs I listen to. It had a solid chorus, which is what I look for most, a
main riff, and a guitar 2 part that is usually on the high strings. What I did have 
with is the guitar 3 part. I didnít know when the guitar 3 part, also the singer,
So I guessed, and I hope it is correct. Enjoy!

Username: dkm817 (same on X box live)
Rains official Website link: http://www.myspace.com/rainsband
Email: guitardrums@rockfan.com

Guitar 1 Rhythmic (C G C F A D)
Guitar 2 Lead     (C G C F A D)
Guitar 3 Rhythmic (C G C F A D)

Intro 1 x2

Guitar 1
D--------------------------------------------------------------|
A--------------------------------------------------------------|
F--------------------------------------------------------------|
C-----------------10---------------------------10--------------| x2
G---------10----------10------10-------10----------10------10--|
C-10--7-8-----10----------10-------7-8-----10----------10------|
pm.   . . .   .   .   .   .   .    . . .   .   .   .   .   .

Guitar 2
D-20~-20------------------20~-20------------------|
A--------20~-20-21~-18~~~--------20~-20-21~-18~~~-|
F-------------------------------------------------|
C-------------------------------------------------|
G-------------------------------------------------|
C-------------------------------------------------|

Guitar 1
D---------------------------------------------------------|
A---------------------------------------------------------|
F---------------------------------------------------------|
C----------------10-------------------------10------------|
G---------10---------10-----10-------10---------10-----10-|
C-6~-7-10-----6----------6-------6-7-----6----------6-----|
pm.  . .  .   .  .   .   .  .    . . .   .  .   .   .  .

Guitar 1 continued
D------------------------------------------------------|
A------------------------------------------------------|
F------------------------------------------------------|
C----------------10------------------------6-----------|
G---------10---------10-----10------10--------6--------|
C-6~-7-10-----6----------6-------6------6--------10--8-|
pm.  . .  .   .  .   .   .  .    .  .   .  .  .  .   .

Guitar 2
D--------------------------------------------------|
A-20~-20-------------------------------------------|
F--------20~-20-22~-19~~~-17~-17-------------------|
C--------------------------------17~-17-18~-12-----|brbr
G--------------------------------------------------|
C--------------------------------------------------|

Intro 2

Guitar 1
D--------------------------------------------------------------|
A--------------------------------------------------------------|
F--------------------------------------------------------------|
C-----------------10---------------------------10--------------| x2
G---------10----------10------10-------10----------10------10--|
C-10--7-8-----10----------10-------7-8-----10----------10------|
pm.   . . .   .   .   .   .   .    . . .   .   .   .   .   .

Guitar 2
D-20~-20------------------20~-20------------------|
A--------20~-20-21~-18~~~--------20~-20-21~-18~~~-|
F-------------------------------------------------|
C-------------------------------------------------|
G-------------------------------------------------|
C-------------------------------------------------|

Guitar 3
D---------------------------------------------------|
A---------------------------------------------------|
F---------------------------------------------------|
C-10-10--------------------10-10--------------------|
G-10-10--------------------10-10--------------------|
C-10-10--------------------10-10--------------------|
pm.  .                     .  .

Guitar 1
D---------------------------------------------------------|
A---------------------------------------------------------|
F---------------------------------------------------------|
C----------------10-------------------------10------------|
G---------10---------10-----10-------10---------10-----10-|
C-6~-7-10-----6----------6-------6-7-----6----------6-----|
pm.  . .  .   .  .   .   .  .    . . .   .  .   .   .  .

Guitar 1 continued
D------------------------------------------------------------------|
A------------------------------------------------------------------|
F------------------------------------------------------------------|
C----------------10------------------------6-----------------------|
G---------10---------10-----10------10--------6--------------------|
C-6~-7-10-----6----------6-------6------6--------10--8--10~~~~~~~~-|
pm.  . .  .   .  .   .   .  .    .  .   .  .  .  .   .

Guitar 2
D-------------------------------------------------------------|
A-20~-20------------------------------------------------------|
F--------20~-20-22~-19~~~-17~-17------------------------------|
C--------------------------------17~-17-18~-12brbr-10~~~~~~~~-|
G-------------------------------------------------------------|
C-------------------------------------------------------------|

Guitar 3
D---------------------------------------------------|
A---------------------------------------------------|
F---------------------------------------------------|
C---------------------------------------------------|
G---------------------------------------------------|
C---------------------------------------------------|

Chorus 1

Guitar 1 & 3
D--------------------------------------------------------|
A--------------------------------------------------------|
F--------------------------------------------------------|
C-8-8-8-8-8-8-10~~~~-0-0-6-6-6-6-6-6-6-6-8-8-8-8-8-8-8-8-|
G-8-8-8-8-8-8-10~~~~-0-0-6-6-6-6-6-6-6-6-8-8-8-8-8-8-8-8-|
C-8-8-8-8-8-8-10~~~~-0-0-6-6-6-6-6-6-6-6-8-8-8-8-8-8-8-8-|
pm                   . .

Guitar 2
D----20~-20-18-20-18-20~-20-18-20-18-20~-20-18~----------------------------|
A-----------------------------------------------20-18~-18-20-18~-18-20-18~-|
F--------------------------------------------------------------------------|
C--------------------------------------------------------------------------|
G--------------------------------------------------------------------------|
C--------------------------------------------------------------------------|

Guitar 1 & 3
D--------------------------------------------------------|
A--------------------------------------------------------|
F-8-8-8-7-7-7--------------------------------------------|
C-8-8-8-7-7-7-10~~~~-0-0-6-6-6-6-6-6-6-6-8-8-8-8-8-8-8-8-|
G-6-6-6-5-5-5-10~~~~-0-0-6-6-6-6-6-6-6-6-8-8-8-8-8-8-8-8-|
C-------------10~~~~-0-0-6-6-6-6-6-6-6-6-8-8-8-8-8-8-8-8-|
pm                   . .

Guitar 2
D----------18-18-18-20~-20-18-20-18-20~-20-18-20-18-20~-20-18~-|
A-18-18-18-----------------------------------------------------|
F--------------------------------------------------------------|
C--------------------------------------------------------------|
G--------------------------------------------------------------|
C--------------------------------------------------------------|

Guitar 2 continued
D----------------------------|
A-20-18~-18-20-18~-18-20-18~-|
F----------------------------|
C----------------------------|
G----------------------------|
C----------------------------|

Guitar 1 & 3
D--------------------------------------------------------|
A--------------------------------------------------------|
F--------------------------------------------------------|
C-8-8-8-8-8-8-10~~~~-0-0-6-6-6-6-6-6-6-6-8-8-8-8-8-8-8-8-|
G-8-8-8-8-8-8-10~~~~-0-0-6-6-6-6-6-6-6-6-8-8-8-8-8-8-8-8-|
C-8-8-8-8-8-8-10~~~~-0-0-6-6-6-6-6-6-6-6-8-8-8-8-8-8-8-8-|
pm                   . .

Guitar 2
D----------18-18-18-20~-20-18-20-18-20~-20-18-20-18-20~-20-18~-|
A-18-18-18-----------------------------------------------------|
F--------------------------------------------------------------|
C--------------------------------------------------------------|
G--------------------------------------------------------------|
C--------------------------------------------------------------|

Guitar 2 continued
D----------------------------|
A-20-18~-18-20-18~-18-20-18~-|
F----------------------------|
C----------------------------|
G----------------------------|
C----------------------------|

Guitar 1 & 3
D------------------------------------------------------------------------|
A------------------------------------------------------------------------|
F-8-8-8-7-7-7------------------------------------------------------------|
C-8-8-8-7-7-7-10~~~~-0-0-6-6-6-6-6-6-6-6-8-8-8-8-8-8-8-8-8-8-8-8-8-8-8-8-|
G-6-6-6-5-5-5-10~~~~-0-0-6-6-6-6-6-6-6-6-8-8-8-8-8-8-8-8-8-8-8-8-8-8-8-8-|
C-------------10~~~~-0-0-6-6-6-6-6-6-6-6-8-8-8-8-8-8-8-8-8-8-8-8-8-8-8-8-|
pm                   . .

Guitar 2
D----------18-18-18-20~-20-18-20-18-20~-20-18-20-18-20~-20-18~-|
A-18-18-18-----------------------------------------------------|
F--------------------------------------------------------------|
C--------------------------------------------------------------|
G--------------------------------------------------------------|
C--------------------------------------------------------------|

Guitar 2 continued
D------------------------------------------------|
A-20-18~-18-20-18~-18-20-18~-18-20-18~-18-20-18~-|
F------------------------------------------------|
C------------------------------------------------|
G------------------------------------------------|
C------------------------------------------------|

Verse

Guitar 1
D------------------------------------------|
A------------------------------------------|
F-----------------------------------8-8-8~-|
C-10-10-10-10-10---10-10-10-10-10---8-8-8~-|
G-10-10-10-10-10---10-10-10-10-10---6-6-6~-|
C-10-10-10-10-10---10-10-10-10-10----------|
pm.  .  .  .  .    .  .  .  .  .

Guitar 2
D-----------------------------------------|
A-----------------------------------------|
F-17~~~~~~~~~~~~~~~~~~~~~~~~~~~~~~~~~~~~~~
C-----------------------------------------|
G-----------------------------------------|
C-----------------------------------------|

Guitar 1
D------------------------------------------|
A------------------------------------------|
F-----------------------------------8-8-7~-|
C-10-10-10-10-10---10-10-10-10-10---8-8-7~-|
G-10-10-10-10-10---10-10-10-10-10---6-6-5~-|
C-10-10-10-10-10---10-10-10-10-10----------|
pm.  .  .  .  .    .  .  .  .  .

Guitar 1
D--------------------------------|
A--------------------------------|
F-------------------------8-8-8~-|
C-6-6-6-6-6---6-6-6-6-6---8-8-8~-|
G-6-6-6-6-6---6-6-6-6-6---6-6-6~-|
C-6-6-6-6-6---6-6-6-6-6----------|

Guitar 1
D--------------------------------|
A--------------------------------|
F--------------------------------|
C-6-6-6-6-6---6-6-6-6-6---8-8~~~-|
G-6-6-6-6-6---6-6-6-6-6---8-8~~~-|
C-6-6-6-6-6---6-6-6-6-6---8-8~~~-|

Guitar 1
D------------------------------------------|
A------------------------------------------|
F-----------------------------------8-8-8~-|
C-10-10-10-10-10---10-10-10-10-10---8-8-8~-|
G-10-10-10-10-10---10-10-10-10-10---6-6-6~-|
C-10-10-10-10-10---10-10-10-10-10----------|
pm.  .  .  .  .    .  .  .  .  .

Guitar 1
D------------------------------------------|
A------------------------------------------|
F-----------------------------------8-8-7~-|
C-10-10-10-10-10---10-10-10-10-10---8-8-7~-|
G-10-10-10-10-10---10-10-10-10-10---6-6-5~-|
C-10-10-10-10-10---10-10-10-10-10----------|
pm.  .  .  .  .    .  .  .  .  .

Guitar 1
D--------------------------------|
A--------------------------------|
F-------------------------8-8-8~-|
C-6-6-6-6-6---6-6-6-6-6---8-8-8~-|
G-6-6-6-6-6---6-6-6-6-6---6-6-6~-|
C-6-6-6-6-6---6-6-6-6-6----------|

Guitar 1
D-------------------------------------------|
A-------------------------------------------|
F-------------------------------------------|
C-6-6-6-6-6---6-6-6-6-6---8-8~~~-10~~~~~~~~-|
G-6-6-6-6-6---6-6-6-6-6---8-8~~~-10~~~~~~~~-|
C-6-6-6-6-6---6-6-6-6-6---8-8~~~-10~~~~~~~~-|

Chorus 1

Guitar 1 & 3
D--------------------------------------------------------|
A--------------------------------------------------------|
F--------------------------------------------------------|
C-8-8-8-8-8-8-10~~~~-0-0-6-6-6-6-6-6-6-6-8-8-8-8-8-8-8-8-|
G-8-8-8-8-8-8-10~~~~-0-0-6-6-6-6-6-6-6-6-8-8-8-8-8-8-8-8-|
C-8-8-8-8-8-8-10~~~~-0-0-6-6-6-6-6-6-6-6-8-8-8-8-8-8-8-8-|
pm                   . .

Guitar 2
D----20~-20-18-20-18-20~-20-18-20-18-20~-20-18~----------------------------|
A-----------------------------------------------20-18~-18-20-18~-18-20-18~-|
F--------------------------------------------------------------------------|
C--------------------------------------------------------------------------|
G--------------------------------------------------------------------------|
C--------------------------------------------------------------------------|

Guitar 1 & 3
D--------------------------------------------------------|
A--------------------------------------------------------|
F-8-8-8-7-7-7--------------------------------------------|
C-8-8-8-7-7-7-10~~~~-0-0-6-6-6-6-6-6-6-6-8-8-8-8-8-8-8-8-|
G-6-6-6-5-5-5-10~~~~-0-0-6-6-6-6-6-6-6-6-8-8-8-8-8-8-8-8-|
C-------------10~~~~-0-0-6-6-6-6-6-6-6-6-8-8-8-8-8-8-8-8-|
pm                   . .
[ Tab from: http://www.guitaretab.com/r/rains/191404.html ]
Guitar 2
D----------18-18-18-20~-20-18-20-18-20~-20-18-20-18-20~-20-18~-|
A-18-18-18-----------------------------------------------------|
F--------------------------------------------------------------|
C--------------------------------------------------------------|
G--------------------------------------------------------------|
C--------------------------------------------------------------|

Guitar 2 continued
D----------------------------|
A-20-18~-18-20-18~-18-20-18~-|
F----------------------------|
C----------------------------|
G----------------------------|
C----------------------------|

Guitar 1 & 3
D--------------------------------------------------------|
A--------------------------------------------------------|
F--------------------------------------------------------|
C-8-8-8-8-8-8-10~~~~-0-0-6-6-6-6-6-6-6-6-8-8-8-8-8-8-8-8-|
G-8-8-8-8-8-8-10~~~~-0-0-6-6-6-6-6-6-6-6-8-8-8-8-8-8-8-8-|
C-8-8-8-8-8-8-10~~~~-0-0-6-6-6-6-6-6-6-6-8-8-8-8-8-8-8-8-|
pm                   . .

Guitar 2
D----------18-18-18-20~-20-18-20-18-20~-20-18-20-18-20~-20-18~-|
A-18-18-18-----------------------------------------------------|
F--------------------------------------------------------------|
C--------------------------------------------------------------|
G--------------------------------------------------------------|
C--------------------------------------------------------------|

Guitar 2 continued
D----------------------------|
A-20-18~-18-20-18~-18-20-18~-|
F----------------------------|
C----------------------------|
G----------------------------|
C----------------------------|

Guitar 1 & 3
D------------------------------------------------------------------------|
A------------------------------------------------------------------------|
F-8-8-8-7-7-7------------------------------------------------------------|
C-8-8-8-7-7-7-10~~~~-0-0-6-6-6-6-6-6-6-6-8-8-8-8-8-8-8-8-8-8-8-8-8-8-8-8-|
G-6-6-6-5-5-5-10~~~~-0-0-6-6-6-6-6-6-6-6-8-8-8-8-8-8-8-8-8-8-8-8-8-8-8-8-|
C-------------10~~~~-0-0-6-6-6-6-6-6-6-6-8-8-8-8-8-8-8-8-8-8-8-8-8-8-8-8-|
pm                   . .

Guitar 2
D----------18-18-18-20~-20-18-20-18-20~-20-18-20-18-20~-20-18~-|
A-18-18-18-----------------------------------------------------|
F--------------------------------------------------------------|
C--------------------------------------------------------------|
G--------------------------------------------------------------|
C--------------------------------------------------------------|

Guitar 2 continued
D------------------------------------------------|
A-20-18~-18-20-18~-18-20-18~-18-20-18~-18-20-18~-|
F------------------------------------------------|
C------------------------------------------------|
G------------------------------------------------|
C------------------------------------------------|

Bridge

Guitar 1 & 3 x2
D------------------------------------------------------------------------|
A------------------------------------------------------------------------|
F---------------------------------------------8~-------------8~-------8~-|
C-6-6-6-6-6-6-6-6-8-8-8-8-8-8-8-8-10-10-10-10-8~-10-10-10-10-8~-10-10-8~-|
G-6-6-6-6-6-6-6-6-8-8-8-8-8-8-8-8-10-10-10-10-6~-10-10-10-10-6~-10-10-6~-|
C-6-6-6-6-6-6-6-6-8-8-8-8-8-8-8-8-10-10-10-10----10-10-10-10----10-10----|
pm                                .  .  .  .      .  .  .  .      .  .

Guitar 2
D-----------------------------------------------------|
A--------------18----18----18----18----18-------------|
F-17~~~~~~~~~~----17----17----17----17----17~~~-------|
C-----------------------------------------------------|
G-----------------------------------------------------|
C-----------------------------------------------------|

Guitar 1 & 3
D------------------------------------------------------------------------|
A------------------------------------------------------------------------|
F---------------------------------12-12-12-10-10-10-8-8-8-7-7-7-7-7-7-8~-|
C-6-6-6-6-6-6-6-6-8-8-8-8-8-8-8-8-12-12-12-10-10-10-8-8-8-7-7-7-7-7-7-8~-|
G-6-6-6-6-6-6-6-6-8-8-8-8-8-8-8-8-10-10-10-8--8--8--6-6-6-5-5-5-5-5-5-6~-|
C-6-6-6-6-6-6-6-6-8-8-8-8-8-8-8-8----------------------------------------|

Guitar 2
D----------------------------------------|
A-18----18----18----18-------20~~~-------|
F----17----17----17----17~~~-------------|
C----------------------------------------|
G----------------------------------------|
C----------------------------------------|

Guitar 1 & 3
D---------------------------------|
A---------------------------------|
F---------------------------------|
C-6-6-6-6-6-6-6-6-8-8-8-8-8-8-8-8-|
G-6-6-6-6-6-6-6-6-8-8-8-8-8-8-8-8-|
C-6-6-6-6-6-6-6-6-8-8-8-8-8-8-8-8-|

Break Off

Guitar 1

D-------------------------------------------------------------|
A-------------------------------------------------------------|
F-------------------------------------------------------------|
C-----------------10---------------------------10-------------|
G---------10----------10------10-------10----------10------10-|
C-10--7-8-----10----------10-------7-8-----10----------10-----|
pm.   . . .   .   .   .   .   .    . . .   .   .   .   .   .

Guitar 1 continued
D--------------------------------|
A--------------------------------|
F--------------------------------|
C-----------------10-------------|
G---------10----------10------10-|
C-10--7-8-----10----------10-----|
pm.   . . .   .   .   .   .   .

Guitar 2
D-20~-20--------------------------------------|
A--------20~-20-21~-18~-20~-20----------------|
F------------------------------20~-20-22~-19~-|
C---------------------------------------------|
G---------------------------------------------|
C---------------------------------------------|

Guitar 3
D-------------------|
A-------------------|
F-------------------|
C-10~~~~~~~~~~~~~~~~
G-10~~~~~~~~~~~~~~~~
C-10~~~~~~~~~~~~~~~~

Chorus 1

Guitar 1 & 3
D--------------------------------------------------------|
A--------------------------------------------------------|
F--------------------------------------------------------|
C-8-8-8-8-8-8-10~~~~-0-0-6-6-6-6-6-6-6-6-8-8-8-8-8-8-8-8-|
G-8-8-8-8-8-8-10~~~~-0-0-6-6-6-6-6-6-6-6-8-8-8-8-8-8-8-8-|
C-8-8-8-8-8-8-10~~~~-0-0-6-6-6-6-6-6-6-6-8-8-8-8-8-8-8-8-|
pm                   . .

Guitar 2
D----20~-20-18-20-18-20~-20-18-20-18-20~-20-18~----------------------------|
A-----------------------------------------------20-18~-18-20-18~-18-20-18~-|
F--------------------------------------------------------------------------|
C--------------------------------------------------------------------------|
G--------------------------------------------------------------------------|
C--------------------------------------------------------------------------|

Guitar 1 & 3
D--------------------------------------------------------|
A--------------------------------------------------------|
F-8-8-8-7-7-7--------------------------------------------|
C-8-8-8-7-7-7-10~~~~-0-0-6-6-6-6-6-6-6-6-8-8-8-8-8-8-8-8-|
G-6-6-6-5-5-5-10~~~~-0-0-6-6-6-6-6-6-6-6-8-8-8-8-8-8-8-8-|
C-------------10~~~~-0-0-6-6-6-6-6-6-6-6-8-8-8-8-8-8-8-8-|
pm                   . .

Guitar 2
D----------18-18-18-20~-20-18-20-18-20~-20-18-20-18-20~-20-18~-|
A-18-18-18-----------------------------------------------------|
F--------------------------------------------------------------|
C--------------------------------------------------------------|
G--------------------------------------------------------------|
C--------------------------------------------------------------|

Guitar 2 continued
D----------------------------|
A-20-18~-18-20-18~-18-20-18~-|
F----------------------------|
C----------------------------|
G----------------------------|
C----------------------------|

Guitar 1 & 3
D--------------------------------------------------------|
A--------------------------------------------------------|
F--------------------------------------------------------|
C-8-8-8-8-8-8-10~~~~-0-0-6-6-6-6-6-6-6-6-8-8-8-8-8-8-8-8-|
G-8-8-8-8-8-8-10~~~~-0-0-6-6-6-6-6-6-6-6-8-8-8-8-8-8-8-8-|
C-8-8-8-8-8-8-10~~~~-0-0-6-6-6-6-6-6-6-6-8-8-8-8-8-8-8-8-|
pm                   . .

Guitar 2
D----------18-18-18-20~-20-18-20-18-20~-20-18-20-18-20~-20-18~-|
A-18-18-18-----------------------------------------------------|
F--------------------------------------------------------------|
C--------------------------------------------------------------|
G--------------------------------------------------------------|
C--------------------------------------------------------------|

Guitar 2 continued
D----------------------------|
A-20-18~-18-20-18~-18-20-18~-|
F----------------------------|
C----------------------------|
G----------------------------|
C----------------------------|

Guitar 1 & 3
D--------------------------------------------------------|
A--------------------------------------------------------|
F-8-8-8-7-7-7--------------------------------------------|
C-8-8-8-7-7-7-10~~~~-0-0-6-6-6-6-6-6-6-6-8-8-8-8-8-8-8-8-|
G-6-6-6-5-5-5-10~~~~-0-0-6-6-6-6-6-6-6-6-8-8-8-8-8-8-8-8-|
C-------------10~~~~-0-0-6-6-6-6-6-6-6-6-8-8-8-8-8-8-8-8-|
pm                   . .

Guitar 2
D----------18-18-18-20~-20-18-20-18-20~-20-18-20-18-20~-20-18~-|
A-18-18-18-----------------------------------------------------|
F--------------------------------------------------------------|
C--------------------------------------------------------------|
G--------------------------------------------------------------|
C--------------------------------------------------------------|

Guitar 2 continued
D------------------------------------------------|
A-20-18~-18-20-18~-18-20-18~-18-20-18~-18-20-18~-|
F------------------------------------------------|
C------------------------------------------------|
G------------------------------------------------|
C------------------------------------------------|

Chorus 2

Guitar 1
D--------------------------------------------------------------------------|
A--------------------------------------------------------------------------|
F-12~~~~~~~~~-14p12-13p12-13p12-14p12-13p12-13p12-15p12p-13p12-14p12-12~~~-|
C--------------------------------------------------------------------------|
G--------------------------------------------------------------------------|
C--------------------------------------------------------------------------|


Guitar 2
D----20~-20-18-20-18-20~-20-18-20-18-20~-20-18~----------------------------|
A-----------------------------------------------20-18~-18-20-18~-18-20-18~-|
F--------------------------------------------------------------------------|
C--------------------------------------------------------------------------|
G--------------------------------------------------------------------------|
C--------------------------------------------------------------------------|


Guitar 3
D--------------------------------------------------------|
A--------------------------------------------------------|
F--------------------------------------------------------|
C-8-8-8-8-8-8-10~~~~-0-0-6-6-6-6-6-6-6-6-8-8-8-8-8-8-8-8-|
G-8-8-8-8-8-8-10~~~~-0-0-6-6-6-6-6-6-6-6-8-8-8-8-8-8-8-8-|
C-8-8-8-8-8-8-10~~~~-0-0-6-6-6-6-6-6-6-6-8-8-8-8-8-8-8-8-|
pm                   . .

Guitar 1
D--------------------------------------------------------------------------|
A--------------------------------------------------------------------------|
F-12~~~~~~~~~-14p12-13p12-13p12-14p12-13p12-13p12-15p12p-13p12-14p12-12~~~-|
C--------------------------------------------------------------------------|
G--------------------------------------------------------------------------|
C--------------------------------------------------------------------------|

Guitar 2
D----------18-18-18-20~-20-18-20-18-20~-20-18-20-18-20~-20-18~-|
A-18-18-18-----------------------------------------------------|
F--------------------------------------------------------------|
C--------------------------------------------------------------|
G--------------------------------------------------------------|
C--------------------------------------------------------------|

Guitar 2 continued
D----------------------------|
A-20-18~-18-20-18~-18-20-18~-|
F----------------------------|
C----------------------------|
G----------------------------|
C----------------------------|

Guitar 3
D------------------------------------------------------------------------|
A------------------------------------------------------------------------|
F-8-8-8-7-7-7------------------------------------------------------------|
C-8-8-8-7-7-7-10~~~~-0-0-6-6-6-6-6-6-6-6-8-8-8-8-8-8-8-8-8-8-8-8-8-8-8-8-|
G-6-6-6-5-5-5-10~~~~-0-0-6-6-6-6-6-6-6-6-8-8-8-8-8-8-8-8-8-8-8-8-8-8-8-8-|
C-------------10~~~~-0-0-6-6-6-6-6-6-6-6-8-8-8-8-8-8-8-8-8-8-8-8-8-8-8-8-|
pm                   . .


Outro

All Guitars!!!
D----------------------------------------------|
A----------------------------------------------|
F-------------8~-------------8~-------8~-------|
C-10-10-10-10-8~-10-10-10-10-8~-10-10-8~-10~---|
G-10-10-10-10-6~-10-10-10-10-6~-10-10-6~-10~---|
C-10-10-10-10----10-10-10-10----10-10----10~---|
pm.  .  .  .     .  .  .  .     .  .

Tab Legend
h  -  hammer-on
p  -  pull-off
/  -  slide up
\  -  slide down
ps/-  pickslide up
ps\-  pickslide down
~  -  let ring
pm.-  palm mute
b  -  bend
r  -  return from bend
*  -  harmonic
x  -  dead note

That you have it. Good band, and hopefully good tab. Please email me if you want me to
other tabs that havenít been made yet. Also tell me how I did! Thanks, oh and one last
ROCK OUT!!!!
Related for Look In My Eyes tab