Song name
# A B C D E F G H I J K L M N O P Q R S T U V W X Y Z

Rains - Right Or Wrong tab

Right or Wrong - Rains


/ = slide up
\ = slide down


Intro:
Guitar 1
D#|----------------|
A#|----------------|
F#|----------------|
C#|----0-----------|
G#|----0-----------|
C#|----0-----------|

Guitar 2
D#|----------------------------------------------------------------|
A#|----------------------------------------------------------------|
F#|----7/9--9-9-9--9/11-11-11-11-11/12--12-12-12-12\11-11-11-11----|
C#|----x-x--x-x-x--x-x--x--x--x--x--x---x--x--x--x--x--x--x--x-----|
G#|----5/7--7-7-7--7/9--9--9--9--9/10---10-10-10-10\9--9--9--9-----|
C#|----------------------------------------------------------------|

Guitar 1
D#|----------------|
A#|----------------|
F#|----------------|
C#|----5-----------|
G#|----5-----------|
C#|----5-----------|

Guitar 2
D#|----------------|
A#|----------------|
F#|----7-----------|
C#|----x-----------|
G#|----5-----------|
C#|----------------|

Play Intro x2

Verse:
Guitar 1 & 2
D#|----0------------|
A#|----3------------|
F#|----2------------|
C#|----0------------|  Strum consistently - listen for correct pattern
G#|----0------------|
C#|----0------------|

PreChorus:
D#|---------------------------------------|
A#|---------------------------------------|
F#|----11-11-11--7--7--7---7/9--9--9--9---|
C#|----x--x--x---x--x--x---x----x--x--x---|
G#|----9--9--9---5--5--5---5/7--7--7--7---|
C#|---------------------------------------|  x2

Chorus:
Guitar 1
D#|----------------|
A#|----------------|
F#|----------------|
C#|----0-----------|
G#|----0-----------|
C#|----0-----------|

Guitar 2
D#|----------------------------------------------------------------|
A#|----------------------------------------------------------------|
F#|----7/9--9-9-9--9/11-11-11-11-11/12--12-12-12-12\11-11-11-11----|
C#|----x-x--x-x-x--x-x--x--x--x--x--x---x--x--x--x--x--x--x--x-----|
G#|----5/7--7-7-7--7/9--9--9--9--9/10---10-10-10-10\9--9--9--9-----|
C#|----------------------------------------------------------------|

Guitar 1
D#|----------------|
A#|----------------|
F#|----------------|
C#|----5-----------|
G#|----5-----------|
C#|----5-----------|

Guitar 2
D#|----------------|
A#|----------------|
F#|----7-----------|
C#|----x-----------|
G#|----5-----------|
C#|----------------|

Repeat verse
Repeat Prechorus
Repeat Chorus

Bridge:
D#|----------------|
A#|----------------|
F#|----------------|
C#|----2-----------|
G#|----2-----------|
C#|----2-----------|

Post-Bridge (clean) Guitar 2 only: 
D#|----------------------------------------------------------------|
A#|----------------------------------------------------------------|
F#|----7/9--9-9-9--9/11-11-11-11-11/12--12-12-12-12\11-11-11-11----|
C#|----x-x--x-x-x--x-x--x--x--x--x--x---x--x--x--x--x--x--x--x-----|
G#|----5/7--7-7-7--7/9--9--9--9--9/10---10-10-10-10\9--9--9--9-----|
C#|----------------------------------------------------------------|

D#|---------------------------------|
A#|---------------------------------|
F#|----7-7-7-7--7/9-9-9--7----------|
C#|----x-x-x-x--x-x-x-x--x----------|
G#|----5-5-5-5--5/7-7-7--5----------|
C#|---------------------------------|

Repeat Chorus


Outro:

Guitar 1
D#|----------------|
A#|----------------|
F#|----------------|
C#|----5-----------|
G#|----5-----------|
C#|----5-----------|

Guitar 2
D#|----------------------------------------------------------------|
A#|----------------------------------------------------------------|
F#|----7/9--9-9-9--9/11-11-11-11-11/12--12-12-12-12\11-11-11-11----|
C#|----x-x--x-x-x--x-x--x--x--x--x--x---x--x--x--x--x--x--x--x-----|
G#|----5/7--7-7-7--7/9--9--9--9--9/10---10-10-10-10\9--9--9--9-----|
C#|----------------------------------------------------------------|

D#|---------------------------------|
A#|---------------------------------|
F#|----7-7-7-7--7/9-9-9--7----------|
C#|----x-x-x-x--x-x-x-x--x----------|
G#|----5-5-5-5--5/7-7-7--5----------|
C#|---------------------------------|

End on:
Guitar 1
D#|----------------|
A#|----------------|
F#|----------------|
C#|----0-----------|
G#|----0-----------|
C#|----0-----------|

Guitar 2
D#|----------------|
A#|----------------|
F#|----7-----------|
C#|----x-----------|
G#|----5-----------|
C#|----------------|
Tap to rate this tab
 
# A B C D E F G H I J K L M N O P Q R S T U V W X Y Z