Song name
# A B C D E F G H I J K L M N O P Q R S T U V W X Y Z

Raised By Swans - Secret Garden Sc chords

Highlighted       Show chord diagrams
Standard Tuning: EADGBe

Note: I simplified this a lot. It's the best I could do, but it still sounds great. 
Lyrics are from Raised By Swans website.

  C [x32010]
  G [320003]
  F [133211]
 Am [x02210]
A#m [577555]
Am7 [x02213]

Intro

e|-------------------------------------------------|
B|-----------------------------------------------0-|
G|----------0-------------------------2-------2----|
D|----------------------------------3--------------|
A|--3----------------------------------------0-----|
E|-------------------------------------------------|
  My love buried it's young with just one question

e|-------------------------------------------------|
B|---1---------------------------------------------|
B|-------------0-----------------------------------|
D|-----------------------------0-------------------|
A|---------3---------------------------------------|
E|----------------------------3--------------------|
  It broke the spell, I've bitten my tongue but


e|---------------------------------------|
B|-------------------------------1-------|
G|---------------------------------------|
D|-----------2---------------------------|
A|------------------------------0--------|
E|----------1----------------------------|
  It's set in motion, it's set in motion


C - G - F - Am7

C - G - F - A#m

C G F Am
Ooo...
C G F Am
Ooo...

 C             G               F Am
I pulled a rope and rang a bell
               C                 G             F Am
When you carved your neural runes into my spine
             C                   G              F      A#m
And then you, you lowered a light for me to decode them
                   C                G              F Am
I dug through miles of tangled earth to say Iíd try

C G F Am
Ooo...
C G F Am
Ooo...

            C              G                  F Am
In your arms Iím silver air and sleeping pills
            C              G                  F Am
But you draw your tripwires with poison quills
                  C                   G                 F     
    A#m
The garden awakes, youíre drawing away, Iím drawing my first breath
                    C              G
But roots hold tight like traplines
                F         Am
They carry a lot of weight

     C         G                    F            Am
Donít save your strength for the end of the dream
   C                G                     F
All youíll have left is please donít leave
                  Am
Please donít leave

     C         G                    F            Am
Donít save your strength for the end of the dream
   C                G                     F
All youíll have left is please donít leave
                  Am
Please donít leave
Tap to rate this tab
# A B C D E F G H I J K L M N O P Q R S T U V W X Y Z