Song name
# A B C D E F G H I J K L M N O P Q R S T U V W X Y Z

Raised By Swans - Hail Of Arrows tab

Eb Tuning: Eb Ab Db Gb Bb eb

Hopefully soon someone can tab the whole song. This is just the intro, but for now you 
can also play this through the song to a certain point.

 Intro

Guitar 1: x2

eb|-------------------------------------------------------------------|
Bb|-------------------------------------------------------------------|
Gb|--3---3---3---3---3---3---2---2---3---3---3---3---3---3---2---2----|
Db|----1---1---1---1---1---1---1---1---0---0---0---0---0---0---0---0--|
Ab|-------------------------------------------------------------------|
Eb|-------------------------------------------------------------------|

eb|-------------------------------------------------------------------|
Bd|-------------------------------------------------------------------|
Gb|--3---3---2---2---3---3---2---2---3---3---3---3---3---3---3---3----|
Db|----3---3---3---3---3---3---3---3---1---1---1----------------------|
Ab|------------------------------------------------1---1---1---1---1--|
Eb|-------------------------------------------------------------------|

Guitar 2: (Play second time around of Guitar 1)

eb|-------------------------------------------------------------------|
Bb|--3--3-3-1--1-1-1-------------1--1-1-1-----------------------------|
Gb|------------------3-3--2--2-2----------3-3-3-3-2-2--0--0-0--3--3--2|
Db|-------------------------------------------------------------------|
Ab|-------------------------------------------------------------------|
Eb|-------------------------------------------------------------------|
Tap to rate this tab
 
# A B C D E F G H I J K L M N O P Q R S T U V W X Y Z