Song name
# A B C D E F G H I J K L M N O P Q R S T U V W X Y Z

Raitt Bonnie - Love Me Like A Man tab

Help us improve GuitareTab! Take a short survey!
Here's a majority of this amazing song...to do the rest, mess around with the E major 
all the way up the fret.  Mess around with the E major pentatonic scale too for that blues 
slide)(this>means bend to)(h means hammer on to..) listen to song for timing and attitude.
           directly below=(keep hand in E position and use ring to reach A)
                        E  A           A E
e-----------------------x--x--x--------x-x-----------------------------|
B---2_3-3-2_3-3---------x--2--x--------2-x---------------2_3-3-3-5-5-5-|
G---3_4-4-3_4-4--2>3-0--1--2--0h-------1-2-1---------------3_4-4-4-4-4-|
D-----------------------2--2--2--------2-2-----------0-2---------------|
A-2---------------------2--x--2--------x-2-0h1_2---2-------------------|
E-0---------------------0--x--0--------x-0--------------0--------------|
                                                     E(listen to beat)A
e--------------------------------------------------0-x-x-x-x-x--x-x-x---|
B------------------------------------------0-0-0-2---x-x-x-x-x--x-2-x---|
G-2_4_2-0------------------------0h2-----------------1-1-1-1-1--1-2-0h1-|
D----------2------------0h2--------------------------2-2-2-2-2--2-2-2---|
A----------0-0h1_2-----------------------------------2-2-2-2-2--2-x-2---|
E----------------------------------------------------0-0-0-0-0--0-x-0---|
                                                 (this part three times)
        A power chord               E
e-----------------------------------x---------3-0--2>10h12---------------|
B-----------------------------------x--2>5-5-3--------------10>11-8-10-8-|
G-----------------------------------1----------------------9-------9-----|
D-------22--44-55-44-22--44--55--44-2------------------------------------|
A-0h1>2-00--00-00-00-00--00--00--00-2------------------------------------|
E-----------------------------------0------------------------------------|
        B power chord
e------------------------------------------|
B------------------------------------------|
G------------------------------------------|
D------------------------------------------|begin with verse again at E
A-0-1-2>9->77-99-1010-99---77-99-1010-99-2-|
E-------7->55-55-55---55---55-55-55---55-0-|
   For the a part do this...(x2) go to B power chord then E power chord
e-3>4-0-----3-3-0-|
B-2-----3-0-2-3---|
G-2---------2-2---|
D-2---------2-2---|
A-x---------x-x---|
E-x---------x-x---|

part of 1st solo...
e------------------------x-----------------------------------|
B------------------------2-----------------------------------|
G------------------------2--------------0-2-0-2-0-2-0-2-0-2--|3lower to 2 like
D-1>2-1>2-1>2-1>2-0------2----------0-2----------------------|                      she does
A------------------2-0---x-----0h1h2-------------------------|
E----------------------2-x--0h2------------------------------|

e-x-x--x-x---2>3-0----x-x--x--------------------------------------------------|
B-x-x--2-x---2>3-0----x-x--2--------------------------------------------------|
G-1-1--2-0h1------2-0-1-1--2-0h1----------------------0-2-0-2-0-2-0-2-0>4>12--|
D-2-2--2-2------------2-2--2-2-----------0-2-0--0-2-0-------------------------|then just play around
A-2-2--x-2------------2-2--x-2------0h1h2-------------------------------------|with e pentatonic
E-0-0--x-0------------0-0--x-0---0h2------------------------------------------|scatle and finis on bm

rest of song based on chord change of A, E, and Bm. Play with those power chords and 
the songs your own.              ~Heather
Related for Love Me Like A Man tab