Song name
# A B C D E F G H I J K L M N O P Q R S T U V W X Y Z

Rakoth - Gothaur Aulendil tab

                

Chords:


     Dm      A#     A

E||--x---||--x--||--x--||                           
B||--x---||--x--||--x--||
G||--x---||--x--||--x--||
D||--7---||--3--||--2--||
A||--8---||--5--||--4--||
E||--10--||--6--||--5--||



Track 1 - Acoustic Guitar (steel)


       Dm                          A#       A               
       E  E  E  E   E  E  E  E     E  E  E  E  E  E  E  E   
E||-----------------------------|--------------------------|
B||-----------------------------|--------------------------|
G||*----------------------------|--------------------------|
D||*------7-----7---------7-----|--------3--2--------2-----|
A||----------8---------8-----8--|-----5-----------4-----4--|
E||---10-----------10-----------|--6-----------5-----------|


   Dm                          A#       A                 
   E  E  E  E   E  E  E  E     E  E  E  E  E  E  E  E     
----------------------------|---------------------------||
----------------------------|---------------------------||
----------------------------|--------------------------*||
------7-----7---------7-----|--------3--2--------2-----*||
---------8---------8-----8--|-----5-----------4-----4---||
--10-----------10-----------|--6-----------5------------||


    Dm                          A#       A               
    E  E  E  E   E  E  E  E     E  E  E  E  E  E  E  E   
-----------------------------|--------------------------|
-----------------------------|--------------------------|
*----------------------------|--------------------------|
*------7-----7---------7-----|--------3--2--------2-----|
----------8---------8-----8--|-----5-----------4-----4--|
---10-----------10-----------|--6-----------5-----------|

                             1st time
   Dm                          A#       A                 
   E  E  E  E   E  E  E  E     E  E  E  E  E  E  E  E     
----------------------------|---------------------------||
----------------------------|---------------------------||
----------------------------|--------------------------*||
------7-----7---------7-----|--------3--2--------2-----*||
---------8---------8-----8--|-----5-----------4-----4---||
--10-----------10-----------|--6-----------5------------||
  
  2nd time
  A#       A                                                       
  E  E  E  E  E  E  E  E     W                   W                 
--------------------------|-------------------|-------------------|
--------------------------|-------------------|-------------------|
--------------------------|-------------------|-------------------|
--------3--2--------2-----|-------------------|-------------------|
-----5-----------4-----4--|-------------------|-------------------|
--6-----------5-----------|-------------------|-------------------|


  W                   W                   W                   W                 
-------------------|-------------------|-------------------|-------------------|
-------------------|-------------------|-------------------|-------------------|
-------------------|-------------------|-------------------|-------------------|
-------------------|-------------------|-------------------|-------------------|
-------------------|-------------------|-------------------|-------------------|
-------------------|-------------------|-------------------|-------------------|


                                           Dm                        
  W                   W                    E  E  E  E   E  E  E  E   
-------------------|-------------------|----------------------------|
-------------------|-------------------|----------------------------|
-------------------|-------------------|----------------------------|
-------------------|-------------------|------7-----7---------7-----|
-------------------|-------------------|---------8---------8-----8--|
-------------------|-------------------|--10-----------10-----------|


  A#       A                  Dm                        
  E  E  E  E  E  E  E  E      E  E  E  E   E  E  E  E   
--------------------------|----------------------------|
--------------------------|----------------------------|
--------------------------|----------------------------|
--------3--2--------2-----|------7-----7---------7-----|
-----5-----------4-----4--|---------8---------8-----8--|
--6-----------5-----------|--10-----------10-----------|


  A#       A                
  E  E  E  E  E  E  E  E    
--------------------------||
--------------------------||
--------------------------||
--------3--2--------2-----||
-----5-----------4-----4--||
--6-----------5-----------||




Track 2 - Acoustic Guitar (steel)


      E  E  E  Q    E  E   E      E  E  E  Q    E  E  E   
E||------------5-------5-------|-------------------------|
B||------6---------------------|--8--6--5----------6--5--|
G||*--7-----7-------7-----(7)--|-----------5----6--------|
D||*---------------------------|-------------------------|
A||----------------------------|-------------------------|
E||----------------------------|-------------------------|


  E  E  E  Q    E  E   E      E  E  E  E   H           
-----------5-------5-------|-----------5~--L---------||
-----6---------------------|--8--6--5----------------||
--7-----7-------7-----(7)--|------------------------*||
---------------------------|------------------------*||
---------------------------|-------------------------||
---------------------------|-------------------------||


   E  E  E  Q    E  E   E      E  E  E  Q    E  E  E   
------------5-------5-------|-------------------------|
------6---------------------|--8--6--5----------6--5--|
*--7-----7-------7-----(7)--|-----------5----6--------|
*---------------------------|-------------------------|
----------------------------|-------------------------|
----------------------------|-------------------------|

                             1st time                   2nd time
  E  E  E  Q    E  E   E      E  E  E  E   H             E  E  E  E   H         
-----------5-------5-------|-----------5~--L---------||-----------5~--L--------|
-----6---------------------|--8--6--5----------------||--8--6--5---------------|
--7-----7-------7-----(7)--|------------------------*||------------------------|
---------------------------|------------------------*||------------------------|
---------------------------|-------------------------||------------------------|
---------------------------|-------------------------||------------------------|




Track 3 - Hammond Organ, Electric Grand Piano


      W                   W                   W                 
E||--------------------|-------------------|-------------------|
B||--------------------|-------------------|-------------------|
G||*-------------------|-------------------|-------------------|
D||*-------------------|-------------------|-------------------|
A||--------------------|-------------------|-------------------|
E||--------------------|-------------------|-------------------|

                      Hammond Organ
  W                      Q.      Q.     Q       Q.     E  E  E   E  E   
--------------------||-----------------------|--6------5--L------------|
--------------------||----------10-----------|---------------8---------|
-------------------*||*--7--------------7----|------------------10--9--|
-------------------*||*--7-------------------|--8---------7------------|
--------------------||-----------------------|-------------------------|
--------------------||-----------------------|-------------------------|

                        1st time
  Q.      Q.     Q        E   E   Q     E   E   Q       
----------------------|-------------------------------||
---------10-----------|--11--13--11----10--11--10-----||
--7--------------7----|------------------------------*||
--7-------------------|---8-------------7------------*||
----------------------|-------------------------------||
----------------------|-------------------------------||

  2nd time                    Electric Grand Piano
   E   E   E   E  H            E   E   E   E   E   E   E   E   
---------------------------|------13--12--10------17--12------|
--11--13--11--10--8--------|--11--------------11--------------|
---------------------------|------------------------------14--|
---8--------------7--------|--15----------12---L--------------|
---------------------------|--13----------13---L--------------|
---------------------------|----------------------------------|


   E   E   E   E   E   E  Q        E   E   E   Q     E   E   E   
------13--18------17-----------|------13--12--10----12------13--|
--11----------11---------------|--11--------------------11------|
----------------------10--9----|--------------------------------|
---L---------------------------|--15----------12--------15------|
---L---------------------------|--13----------13--------13------|
-------------------------------|--------------------------------|


   E   Q     E   E   E   E   E      E   E   E   E   E   E   E   E   
--12---9--------24--------------|------13--12--10------17--12------|
------10------------------------|--11--------------11--------------|
--------------------------------|------------------------------14--|
---L--14--------14--------------|--15----------12---L--------------|
---L--12----12------12--10--12--|--13----------13---L--------------|
--------------------------------|----------------------------------|


   E   E   E   E   E   E  Q        E   E   E   Q     E   E   E   
------13--18------17-----------|------13--12--10----12------13--|
--11----------11---------------|--11--------------------11------|
----------------------10--9----|--------------------------------|
---L---------------------------|--15----------12--------15------|
---L---------------------------|--13----------13--------13------|
-------------------------------|--------------------------------|


   E   Q     E   E   E   E   E      W                   W                 
--12---9--------24--------------|--------------------|-------------------|
------10------------------------|--------------------|-------------------|
--------------------------------|--------------------|-------------------|
---L--14--------14--------------|--------------------|-------------------|
---L--12----12------12--17--19--|--17----------------|--L----------------|
--------------------------------|--------------------|-------------------|

  Hammond Organ
  W                    Q.      E  H          
-------------------|-----------------------||
-------------------|--11------10--L--------||
--7----------------|-----------------------||
-------------------|-----------------------||
-------------------|-----------------------||
-------------------|-----------------------||





Track 4 - Acoustic Bass


      W                   W                   W                 
G||--------------------|-------------------|-------------------|
D||*-------------------|-------------------|-------------------|
A||*-------------------|-------------------|-------------------|
E||--------------------|-------------------|-------------------|


  W                      W                   W                 
--------------------||--------------------|-------------------|
-------------------*||*-------------------|-------------------|
-------------------*||*-------------------|-------------------|
--------------------||--------------------|-------------------|

                    1st time              2nd time
  W                   W                     W                 
-------------------|--------------------||-------------------|
-------------------|-------------------*||-------------------|
-------------------|-------------------*||-------------------|
-------------------|--------------------||-------------------|


  W                   W                   W                   W                 
-------------------|-------------------|-------------------|-------------------|
-------------------|-------------------|-------------------|-------------------|
-------------------|-------------------|-------------------|-------------------|
-------------------|-------------------|-------------------|-------------------|


  Q.     Q.     Q       E  E  E  E  E  Q    E     Q.     H        E   
---------------------|-------------------------|---------------------|
---------------------|-------------------------|---------------------|
--1-------------1----|--L--------------1----1--|---------1--------L--|
---------1-----------|-----1-----1-------------|--1------------------|


  E  H.           E     W                   W                 
---------------------|-------------------|-------------------|
---------------------|-------------------|-------------------|
--L--0------------L--|--5----------------|--L----------------|
---------------------|-------------------|-------------------|


  W                   W                  
-------------------|-------------------||
-------------------|-------------------||
--L----------------|--L----------------||
-------------------|-------------------||





Duration Legend
---------------
W - whole
H - half
Q - quarter
E - 8th
S - 16th
T - 32nd
X - 64th
. - note dotted
|-n-|  - n-tuplets


Tablature Legend
----------------
L - tied note
x - dead note
g - grace note
(n) - ghost note
> - accentuded note
NH - natural harmonic
AH - artificial harmonic
TH - tapped harmonic
SH - semi harmonic
PH - pitch harmonic
h - hammer on
p - pull off
b - bend
br - bendRelease
pb - preBend
pbr - preBendRelease
brb - bendReleaseBend
\n/ - tremolo bar dip
\n - tremolo bar dive
-/n - tremolo bar Release up
/n\ - tremolo bar inverted dip
/n - tremolo bar return
-\n - tremolo bar Release down
S - shift slide
s - legato slide
/ -  slide into from below or out of upwards
\ -  slide into from above or out of downwards
~ - vibrato
W - wide vibrato
tr - trill
TP - tremolo picking
T - tapping
S - slap
P - pop
< - fade in
^ - brush up
v - brush down
Tap to rate this tab
 
# A B C D E F G H I J K L M N O P Q R S T U V W X Y Z