Song name
# A B C D E F G H I J K L M N O P Q R S T U V W X Y Z

Ralph Myerz - Deepest Red tab

Band: Ralph Myerz & The Jack Herren Band
Song: Deepest Red
Album:  Sharp Knives & Loaded Guns (2006)


  Main Riff

 Guitar 1 & Bass
|---------------------------------------------------|
|---------------------------------------------------|
|---------------------------------------------------|
|---------------------------------------------------|
|-8-8---6-6---6-6------6----------------------------|
|-----8-----8------6-8---8--------------------------|

   
 Guitar 2 (Keyboards)
    F   
|---8--8------8-------------------------------------|
|---10-10-----10------------------------------------|
|---10-10-----10------------------------------------|
|---------------------------------------------------|
|---------------------------------------------------|
|---------------------------------------------------|

 
  Chorus Vocals

|--13--11----11----13--11----15-11------------------| 
|---------13--------------13--------13--------------|
|---------------------------------------------------| x2
|---------------------------------------------------|
|---------------------------------------------------|
|---------------------------------------------------|

  Whistle

|-13--11-10--8--------------------------------------|
|---------------------------------------------------|
|---------------------------------------------------|
|---------------------------------------------------|
|---------------------------------------------------|
|---------------------------------------------------|


 Bridge (1:33)

|---------------------------------------------------|
|---------------------------------------------------|
|---------------------------------------------------|
|---------------------------------------------------|
|---/8------/6--------------------------------------|
|-/8------/6----------------------------------------|

  
  Guitar Solo
 
|---------------------------------------------------|
|--------------4v----/6-----------------------------|
|-----1-3v-3v---------------------------------------|
|-1-3-----------------------------------------------|
|---------------------------------------------------|
|---------------------------------------------------|

https://myspace.com/ralphmyerz
Tap to rate this tab
# A B C D E F G H I J K L M N O P Q R S T U V W X Y Z