Guitaretab - guitar tabs
Song name
# A B C D E F G H I J K L M N O P Q R S T U V W X Y Z

Ram Di Dam - Flashbacks tab

hey whats up? guys this is my first tab...
whele is half-step down this song very simple any question here is my e-mail
fabri_1608@hotmail.com

intro


1-------------------------------------}
2-3--5--7--8---10--10--12--12--13-----}
3-5--7--9--10--12--12--14--14--xx-----}
4-5--7--9--10------------------15--15-}
5-------------------------------------}
6-------------------------------------}


1-------------------------------------------}------------------------------}
2-------------------------------------------}------------------------------}
3-------------------------------------------}------------------------------}
4-9-10---9-10---9-10---9-10---9-10---9--10--}-9-10---x6--------------------}
5-----13-----13----13-----13-----13-------13}-----13-x5--13-14-x-14/13-14x-}
6-------------------------------------------}------------------------------}

1-----------------------}
2-----------------------}
3-----------------------}--
4-9-10--x6---------17-17}--
5----13-x6-13/14-15-----}
6-----------------------}

verse

1-3-3----------}-3-3---8---5--5-}--}
2-5-5----------}-5-5---8---7--7-}--}
3-5-5--------10}-5-5---10--7--7-}--}
4----------9---}-------10--5--5-}--}
5-------10-----}-------8---5--5-}--}
6--------------}-------8---5--5-}--}


1-3---------3---------8---------5--------}--3-----3-----8-----}
2-5---------3---------8---------7--------}--5-----3-----8-----}
3-5--x4-----5--X4-----10--X4----7--x4----}--5--x2-5--x2-10--X?}
4-3--x4-----5--X4-----10--X4----7--x4----}--3--X2-5--x2-10--X?}
5-3---------5---------8---------5--------}--3-----5-----8-----}
6-3---------3---------8---------5--------}--3-----3-----8-----}



1-3---------3---------8---------5----------}
2-5---------3---------8---------7----------}
3-5--x4-----5--x4-----10--x4----7--x4------}
4-3--x4-----5--X4-----10--X4----7--x4------}
5-3---------5---------8---------5----------}
6-3---------3---------8---------5----------}


1-3---3---3---3----5--5-}.
2-5---5---5---5----7--7-}.
3-5---5---5---5----7--7-}.
4------------------5--5-}.
5------------------5--5-}.
6------------------5--5-}.


[ Tab from: http://www.guitaretab.com/r/ram-di-dam/284210.html ]
1-3---------3---------8---------5--------}--3-----3-----8-----}
2-5---------3---------8---------7--------}--5-----3-----8-----}
3-5--x4-----5--X4-----10--X4----7--x4----}--5--x2-5--x2-10--X?}
4-3--x4-----5--X4-----10--X4----7--x4----}--3--X2-5--x2-10--X?}
5-3---------5---------8---------5--------}--3-----5-----8-----}
6-3---------3---------8---------5--------}--3-----3-----8-----}




1-3---------3---------8---------5----------}
2-5---------3---------8---------7----------}
3-5--x4-----5--x4-----10--x4----7--x4------}
4-3--x4-----5--X4-----10--X4----7--x4------}
5-3---------5---------8---------5----------}
6-3---------3---------8---------5----------}





1-------------------------------------------}------------------------------}
2-------------------------------------------}------------------------------}
3-------------------------------------------}------------------------------}
4-9-10---9-10---9-10---9-10---9-10---9--10--}-9-10---x6--------------------}
5-----13-----13----13-----13-----13-------13}-----13-x5--13-14-x-14/13-14x-}
6-------------------------------------------}------------------------------}

1-----------------------}
2-----------------------}
3-----------------------}--x
4-9-10--x6---------17-17}--x
5----13-x6-13/14-15-----}
6-----------------------}




1-3-----------------------}---}.
2-5-x4--3-----8------5----}---}.
3-5-----5-x4--10-x4--7-X4---x2}.
4-------5-----10-----7------x2}.
5-------------------------}---}.
6-------------------------}---}.

this little riff is optional if you wanna play it :)

1-------------------------------------------}
2-------------------------------------------}
3-9------x------x2--------------------------}
4-9--x4--10--x4-x2--------------------------}
5-13-----13-----x2-9-10-9-10-9-10-9/10-9-10-}
6-------------------------------------------}





1-3---------3---------8---------5-----------}
2-5---------3---------8---------7-----------}
3-5--x4-----5--x4-----10--x4----7--x4-------}x2
4-3--x4-----5--X4-----10--X4----7--x4-------}x2
5-3---------5---------8---------5-----------}
6-3---------3---------8---------5-----------}





1-3---------3---------8---------5--------/-12-15-/18-10-}.
2-5---------3---------8---------7--------/-12-15-/18-12-}.
3-5--x4-----5--x4-----10--x4----7--x4----/-12-15-/18-12-}.
4-3--x4-----5--X4-----10--X4----7--x4----/-12-15-/18-10-}.
5-3---------5---------8---------5--------/-12-15-/18-10-}.
6-3---------3---------8---------5--------/-12-15-/18-10-}.

thats all well like in the up any questiones heres my e-mail.

fabri_1608@hotmail.com you are welcome
Related for Flashbacks tab
Flashbacks chords by Ram Di Dam