Song name
# A B C D E F G H I J K L M N O P Q R S T U V W X Y Z

Ram Di Dam - Flashbacks tab

intro.. play these two melodies at the same time
E)------------------|------------------------------------------|
B)------------------|------------------------------------------|
G)------------------|------------------------------------------|
D)-------------1-2--|------------6-8-9-------------------------|
A)-------0-2-4------|------6-7-9-------------------------------|
E)-0-2-4------------|--7-9-------------------------------------|


main riff                         chords for the main riff
E)-----7--(x10)---7-7-7-7-5-4---|--2-----0--4--------------------|
B)-4-5----(x10)-----------------|--2--4--0--5--------------------|
G)------------------------------|--2--4--1--6--------------------|
D)------------------------------|--4--4--2--6--------------------|
A)------------------------------|--4--2--2--4--------------------|
E)------------------------------|--2-----0-----------------------|

This song needs to be famous stat!
Tap to rate this tab
# A B C D E F G H I J K L M N O P Q R S T U V W X Y Z