Song name
# A B C D E F G H I J K L M N O P Q R S T U V W X Y Z

Ramallah - True Crime tab

RAMALLAH - TRUE CRIME
http://www.thorprecords.com/bands/ramallah.php


intro (0:23 - 0:26)
---------------------------------|
---------------------------------|
-----6-------6-------6-------6---|
---6---6---6---6---6---6---6---6-|
-4-------4-------4-------4-------|
---------------------------------|

verses 1 and 2 (0:27 - 1:08)
---------------------------------|
---------------------------------|
-----6---------------------------|
---6---6-----6-------4-------4---|
-4---------6---6---4---4---4---4-|
---------6-------4-------4-------|

---------------------------------|
---------------------------------|
-----6---------------------------|
---6---6-----6-------4-------6---|
-4---------6---6---4---4---6---6-|
---------6-------4-------6-------|

---------------------------------|
---------------------------------|
-----6---------------------------|
---6---6-----6-------4-------6---|
-4---------6---6---4---4---6---6-|
---------6-------4-------6-------|

--------------------------------------------------|
--------------------------------------------------|
--------------------------------------6-------6---|
-----8-------8-------4-------6------6---6---6---6-|
---8---8---8---8---4---4---6---6--4-------4-------|
-8-------8-------4-------6------------------------| x2

not just my body but you took my soul (1:08 - 1:26)
------------------------------------------------------------------|
------------------------------------------------------------------|
----------------------6-------6-----------------------------------|
-----4-------6------6---6---6---6-----4-------6-------8-------8---|
---4---4---6---6--4-------4---------4---4---6---6---8---8---8---8-|
-4-------6------------------------4-------6-------8-------8-------| x2

i never heard a child pray to be a monster (1:26 - 1:44)
---------|
---------|
-----6---|
---6---6-|
-4-------|
---------| x16

criminal (1:44 - 1:48)
---------------------------------|
---------------------------------|
---------------------------------|
-----8-------6-------4-------4---|
---8---8---6---6---4---4---4---4-|
-8-------6-------4-------4-------|

but here we are once again my friends (1:49 - 2:04)
---------|
---------|
-----6---|
---6---6-|
-4-------|
---------| x14

out
---
---
-6-
-6-
-4-
---
 ^
Tap to rate this tab
# A B C D E F G H I J K L M N O P Q R S T U V W X Y Z