Song name
# A B C D E F G H I J K L M N O P Q R S T U V W X Y Z

Ramblin Jack Elliott - Arthritis Blues tab

Highlighted       Show chord diagrams
-------------------------------------------------------------------------------
			 Arthritis Blues - Ramblin' Jack Elliott
-------------------------------------------------------------------------------
Tabbed by: Travis
Email:Desolationrow128@aim.com
http://www.ramblinjack.com/
Tuning:Standard
CAPO 1ST FRET    key of C#

e|---------0---0---0---0--|
B|---------1---1---1---1--|
G|---------0---0---0---0--|
D|---------2---2---2---2--|
A|---0-2-3-3---3-3-3---3--|
E|-3---------3-------3----|......


C                                         C7
Went to the the doctor, the doctor looked sad
         F                         C
Well, he looked in his book and he told me what I had
        F             C              G            C
and its all, kinds of trouble, gunna find you somehow...

he frequently plays this little riff after playing a C chord
e|----0-----0--|
B|----1---1-1--|
G|----0-2---0--|
D|----2-----2--|
A|--3-3-----3--|
E|-------------|


C                C7
Arthritis is the thing to miss, 
      F                       C
it'll leave you walkin with a double twist
        F             C              G            C
and its all, kinds of trouble, gunna find you somehow
...same chords for the rest of the song
Tap to rate this tab
# A B C D E F G H I J K L M N O P Q R S T U V W X Y Z