Song name
# A B C D E F G H I J K L M N O P Q R S T U V W X Y Z

Ramesses - Earth Must Die tab

Help us improve GuitareTab! Take a short survey!
-------------------------------------------------------------------------------
			     Earth Must Die - Ramesses
-------------------------------------------------------------------------------
Tabbed by:theWallofYAWN
Email: vmanhas321@hotmail.com

Tuning:tune down full step (two frets) from standard EADGBe tuning.  all you need is 6th 
5th strings.


this instrumental is simple but mesmorizing in a gloomy state of mind.  its from their 
album, Misanthropic Alchemy, which is well worth a listen.
check it out if you already havent.

band website: http://www.hcp-industries.demon.co.uk/ramesses/biog.html


play this tab looped 17 times at a consistent speed.

e|-------------------------------------------------|
B|-------------------------------------------------|
G|-------------------------------------------------|
D|-------------------------------------------------|
A|---4-5---4-5---5---7-5---7-5---5---7-5---7-5---5-|
E|-7-----7-----7---0-----0-----0---4-----4-----4---|

e|---------------------------------|
B|---------------------------------|
G|---------------------------------|
D|---------------------------------|
A|---4-5---4-5---5---4-5---4-5---5-|
E|-3-----3-----3---3-----3-----3---|

e|-------------------------------------------------|
B|-------------------------------------------------|
G|-------------------------------------------------|
D|-------------------------------------------------|
A|---4-5---4-5---5---4-5---4-5---5---4-5---4-5---5-|
E|-0-----0-----0---3-----3-----3---6-----6-----6---|


| /  slide up
| \  slide down
| h  hammer-on
| p  pull-off
| ~  vibrato
| +  harmonic
| x  Mute note
===============================================================================
Related for Earth Must Die tab