Song name
# A B C D E F G H I J K L M N O P Q R S T U V W X Y Z

Rammstein - Wo Bist Du tab

Artist:Rammstein
Album:Rosenrot
Title:Wo bist du
Tuning:Drop C (CGCFAD)

Intro:Keyboard (arranged for guitar)
D|----------------------------------17----------|
A|--------17-------18---20--18--17------20--18--|
F|-----17-------17------------------------------|
C|--19-------19---------------------------------|
G|----------------------------------------------|
C|----------------------------------------------|

Riff
D|---------------------------------|---------------------------------|
A|---------------------------------|---------------------------------|
F|---------------------------------|---------------------------------|
C|-7-7-7-7-7-7-7-7-7-7-7-7-7-7-7-7-|-3-3-3-3-3-3-3-3-3-3-3-3-3-3-3-3-|
G|-7-7-7-7-7-7-7-7-7-7-7-7-7-7-7-7-|-3-3-3-3-3-3-3-3-3-3-3-3-3-3-3-3-|
C|-7-7-7-7-7-7-7-7-7-7-7-7-7-7-7-7-|-3-3-3-3-3-3-3-3-3-3-3-3-3-3-3-3-|

D|-------------------------------------------------|
A|-------------------------------------------------|
F|-------------------------------------------------|
C|-10-10-10-10-10-10-10-10-10-10-10-10-10-10-10-10-|
G|-10-10-10-10-10-10-10-10-10-10-10-10-10-10-10-10-|
C|-10-10-10-10-10-10-10-10-10-10-10-10-10-10-10-10-|

|---------------------------------|
|---------------------------------|
|---------------------------------|
|-0-0-0-0-0-0-0-0-0-0-0-0-0-0-0-0-|
|-0-0-0-0-0-0-0-0-0-0-0-0-0-0-0-0-|
|-0-0-0-0-0-0-0-0-0-0-0-0-0-0-0-0-|

Solo:Keyboard(arranged for guitar)
D|--------------------------13------------12-13-12---|
A|-13-12-10-----10-13-12-10------13-12-10------------|
F|-----------10--------------------------------------|
C|---------------------------------------------------|
G|---------------------------------------------------|
C|---------------------------------------------------|
_____________________________________________________________________________
Intro
Riff x2 +Intro
VerseRiff x2
Bridge
Riff +Solo
Riff x2
Riff x2 +Intro x2                                                 by *Richard
Tap to rate this tab
# A B C D E F G H I J K L M N O P Q R S T U V W X Y Z