Guitaretab - guitar tabs
Song name
# A B C D E F G H I J K L M N O P Q R S T U V W X Y Z
Home / R / Rammstein / 5 4 tab

Rammstein - 5 4 tab

Both guitars  
E|------------------------------------------------------------------|  
B|------------------------------------------------------------------|  
G|--5---5---5---5------5---5---5---5------5---5---5---5------5---5--|  
D|--5---5---5---5------5---5---5---5------5---5---5---5------5---5--|  
A|--4---3---3---3------3---3---3---3------3---3---3---3------3---3--|  
E|------------------------------------------------------------------|  


E|------------------------------------------------------------------|  
B|------------------------------------------------------------------|  
G|*-5---6---5---5------5---5---5---5------5---5---5---5------5---5-*|  
D|*-5---5---5---5------5---5---5---5------5---5---5---5------5---5-*|x7  
A|--4---4---3---3------3---3---3---3------3---3---3---3------3---3--|  
E|------------------------------------------------------------------|  


E|------------------------------------------------------------------|  
B|------------------------------------------------------------------|  
G|--3---3---3---3------3---3---3---3------3---3---3---3------3---3--|  
D|--3---3---3---3------3---3---3---3------3---3---3---3------3---3--|  
A|--1---1---1---1------1---1---1---1------1---1---1---1------1---1--|  
E|------------------------------------------------------------------|  


E|------------------------------------------------------------------|  
B|------------------------------------------------------------------|  
G|--5---5---5---5------5---5---5---5------5---5---5---5------5---5--|  
D|--5---5---5---5------5---5---5---5------5---5---5---5------5---5--|  
A|--4---3---3---3------3---3---3---3------3---3---3---3------3---3--|  
E|------------------------------------------------------------------|  


E|------------------------------------------------------------------|  
B|------------------------------------------------------------------|  
G|--3---3---3---3------3---3---3---3------3---3---3---3------3---3--|  
D|--3---3---3---3------3---3---3---3------3---3---3---3------3---3--|  
A|--1---1---1---1------1---1---1---1------1---1---1---1------1---1--|  
E|------------------------------------------------------------------|  


E|------------------------------------------------------------------|  
B|------------------------------------------------------------------|  
G|--5---5---5---5------5---5---5---5------5---5---5---5------5---5--|  
D|--5---5---5---5------5---5---5---5------5---5---5---5------5---5--|  
A|--4---3---3---3------3---3---3---3------3---3---3---3------3---3--|  
E|------------------------------------------------------------------|  

[ Tab from: http://www.guitaretab.com/r/rammstein/141874.html ]
1st guitar  
E|------------------------------------------------------------------|  
B|------------------------------------------------------------------|  
G|*-9---9---9---9------9---9---9---9------9---9---9---9------9---9-*|  
D|*-9---9---9---9------9---9---9---9------9---9---9---9------9---9-*|x4  
A|--8---7---7---7------7---7---7---7------7---7---7---7------7---7--|  
E|------------------------------------------------------------------|  


2nd guitar  
E|------------------------------------------------------------------|  
B|------------------------------------------------------------------|  
G|*----------------------------------------------------------------*|  
D|*-2---2---2---2------2---2---2---2------2---2---2---2------2---2-*|x4  
A|--2---2---2---2------2---2---2---2------2---2---2---2------2---2--|  
E|--1---0---0---0------0---0---0---0------0---0---0---0------0---0--|  


Both guitars  
E|------------------------------------------------------------------|  
B|------------------------------------------------------------------|  
G|*-5---4---4---4------4---4---4---4------4---4---4---4------4---4-*|  
D|*-4---4---4---4------4---4---4---4------4---4---4---4------4---4-*|x4  
A|--2---2---2---2------2---2---2---2------2---2---2---2------2---2--|  
E|------------------------------------------------------------------|  


E|------------------------------------------------------------------|  
B|------------------------------------------------------------------|  
G|*-6---5---5---5------5---5---5---5------5---5---5---5------5---5-*|  
D|*-5---5---5---5------5---5---5---5------5---5---5---5------5---5-*|x2  
A|--4---3---3---3------3---3---3---3------3---3---3---3------3---3--|  
E|------------------------------------------------------------------|  


1st guitar  
E|------------------------------------------------------------------|  
B|------------------------------------------------------------------|  
G|*-9---9---9---9------9---9---9---9------9---9---9---9------9---9-*|  
D|*-9---9---9---9------9---9---9---9------9---9---9---9------9---9-*|x2  
A|--8---7---7---7------7---7---7---7------7---7---7---7------7---7--|  
E|------------------------------------------------------------------|  


2nd guitar  
E|------------------------------------------------------------------|  
B|------------------------------------------------------------------|  
G|*----------------------------------------------------------------*|  
D|*-2---2---2---2------2---2---2---2------2---2---2---2------2---2-*|x2  
A|--2---2---2---2------2---2---2---2------2---2---2---2------2---2--|  
E|--1---0---0---0------0---0---0---0------0---0---0---0------0---0--|  


Both guitars  
E|------------------------------------------------------------------|  
B|------------------------------------------------------------------|  
G|*-5---4---4---4------4---4---4---4------4---4---4---4------4---4-*|  
D|*-4---4---4---4------4---4---4---4------4---4---4---4------4---4-*|x2  
A|--2---2---2---2------2---2---2---2------2---2---2---2------2---2--|  
E|------------------------------------------------------------------|  
Related for 5 4 tab
×
5 4