Song name
# A B C D E F G H I J K L M N O P Q R S T U V W X Y Z

Rammstein - Halleluja tab

----------------------------------------------------------------------------
			     Halleluja - Rammstein
----------------------------------------------------------------------------
Tabbed by: Bee-Ay

Email: Leviathan_ben@hotmail.com

Tuning: D-A-D-G-B-E

Hello, i wanted to tab this song out because in the end of the song, there are
an week distorted guitar with wah wah, that no one have tabbed out. Maybe because
its difficult to hear, cause it is.

Verse riffs:
e|------------------------|
B|------------------------|
G|*----------------------*|
D|*--5-5-2--------3-3-2--*|
A|---5-5-2--------3-3-2---|
D|---5-5-2--------3-3-2---|

e|-------------------------------------------------|
B|-------------------------------------------------|
G|*-----------------------------------------------*|
D|*--2---------2---------2---------2---------3-3--*|
A|---2---------2---------2---------2---------3-3---|
D|---2-2-2-2-2-2-2-2-2-2-2-2-2-2-2-2-2-2-2-2-3-3---|
pm     . . . .   . . . .   . . . .   . . . .

e|-------------------------------------------------|
B|-------------------------------------------------|
G|*-----------------------------------------------*|
D|*--2---------2---------2---------2---------5-5--*|
A|---2---------2---------2---------2---------5-5---|
D|---2-2-2-2-2-2-2-2-2-2-2-2-2-2-2-2-2-2-2-2-5-5---|
pm     . . . .   . . . .   . . . .   . . . .

Chorus:
e|----------------|---------------|---------------|----------------|
B|----------------|---------------|---------------|----------------|
G|*---------------|---------------|---------------|---------------*|
D|*--2----2--10-10|--7----7--10-10|--5----5--10-10|--3----3--5-5--*|
A|---2----2--10-10|--7----7--10-10|--5----5--10-10|--3----3--5-5---|
D|---2----2--10-10|--7----7--10-10|--5----5--10-10|--3----3--5-5---|


And now the guitar fill. its starts at 2:59
Listen carefully:
e|----------------------------------|
B|--12~-0-12~-0-12~-0-12~-0-12s15~--|
G|*--------------------------------*|
D|*--------------------------------*|
A|----------------------------------|
D|----------------------------------|

At 3:12 it is 15 bend 17.
e|------------------------------------|
B|--12~-0-12~-0-12~-0-12~-0-12s15b17--|
G|*----------------------------------*|
D|*----------------------------------*|
A|------------------------------------|
D|------------------------------------|

~: Vibrate a little.
pm: Palm mute.

Feel free to Comment or mail.
Tap to rate this tab
# A B C D E F G H I J K L M N O P Q R S T U V W X Y Z