Song name
# A B C D E F G H I J K L M N O P Q R S T U V W X Y Z

Rammstein - Asche Zu Asche tab

 Band: Rammtein
Album: Herzelied
Song title: Asche zu Asche
Tuning: Standard (EADGBE)
Intro/Main riff
e|-----------------------------------------------------------------|  
B|-----------------------------------------------------------------|  
G|*---------------------------------------------------------------*|  
D|*-5-------------7---------------8-----------7-------5-----------*|  
A|--5-------------7---------------8-----------7-------5------------|  
E|--3p0---0---0---5---0---0---0---6---0---0---5---0---3---0---0-0--|  
pm        .   .       .   .   .       .   .       .       .   . .  


End of Intro and middle part  
e|------------------------------------------------------------|  
B|------------------------------------------------------------|  
G|------------------------------------------------------------|  
D|--5-------------7-------------------------------------------|  
A|--5-------------7-------------------------------------------|  
E|--3p0---0---0---5---0---0---0---6-6-6--6-6-6--6-6-6--6-6-6--|  
pm        .   .       .   .   .   . . .  . . .  . . .  . . .  


From 3:00, the right guitar plays this  
e|---------------------------------------------------------------|  
B|---------------------------------------------------------------|  
G|*-------------------------------------------------------------*|  
D|*-5-------------7---------------8-----------7-------5---5---5-*|  
A|--5-------------7---------------8-----------7-------5---5---5--|  
E|--3p0---0---0---5---0---0---0---6---0---0---5---0---3---3---3--|  
pm        .   .       .   .   .       .   .       . 

PM. = Palm Mute

A very easy song to play. I like it very much
Tap to rate this tab
# A B C D E F G H I J K L M N O P Q R S T U V W X Y Z