Song name
# A B C D E F G H I J K L M N O P Q R S T U V W X Y Z

Rammstein - Zerstoren tab

rammstein zerstoren G tab (drop-C tuning)

Main riff
D|-----------------------------------|
A|-----------------------------------|
F|-----------------------------------|
C|-----------------------------------|
G|-----------------------------------|
C|--4-1-1-0-1-1-0-1-0-1-1-1-0-0-1-1--|


First verse riff
D|-----------------------------------|
A|-----------------------------------|
F|-----------------------------------|
C|--4-1-----1-----1---1---1-----1-1--|
G|--4-1-0-0-1-1-1-1-1-1-1-1-1-1-1-1--|
C|--4-1-0-0-1-1-1-1-1-1-1-1-1-1-1-1--|
pm      . .   . .   .   .   . .

Chorus
D|-------------------------------------------------------------------|
A|-------------------------------------------------------------------|
F|-------------------------------------------------------------------|
C|-------------------------------------------------------------------|
G|-------------------------------------------------------------------|
C|--4-1-1-0-1-1-0-1-0-1-1-1-0-0-1-1-4-1-1-0-1-1-0-1-0-1-1-1-0-0-1-1--|

D|-------------------------------------------------------------------|
A|-------------------------------------------------------------------|
F|-------------------------------------------------------------------|
C|--2-2-2-2-2-2-2-2-2-2-2-2-2-2-2-2----------------------------------|
G|--2-2-2-2-2-2-2-2-2-2-2-2-2-2-2-2----------------------------------|
C|--2-2-2-2-2-2-2-2-2-2-2-2-2-2-2-2-4-1-1-0-1-1-0-1-0-1-1-1-0-0-1-1--|

D|-------------------------------------------------------------------|
A|-------------------------------------------------------------------|
F|-------------------------------------------------------------------|
C|-------------------------------------------------------------------|
G|-------------------------------------------------------------------|
C|--4-1-1-0-1-1-0-1-0-1-1-1-0-0-1-1-4-1-1-0-1-1-0-1-0-1-1-1-0-0-1-1--|

D|-------------------------------------------------------------------|
A|-------------------------------------------------------------------|
F|-------------------------------------------------------------------|
C|--2-2-2-2-2-2-2-2-2-2-2-2-2-2-2-2-6-6-6-6-6-6-6-6-6-6-6-6-6-6-6-6--|
G|--2-2-2-2-2-2-2-2-2-2-2-2-2-2-2-2-6-6-6-6-6-6-6-6-6-6-6-6-6-6-6-6--|
C|--2-2-2-2-2-2-2-2-2-2-2-2-2-2-2-2-6-6-6-6-6-6-6-6-6-6-6-6-6-6-6-6--|


Heavy riff after the chorus
D|-----------------------------------|
A|-----------------------------------|
F|-----------------------------------|
C|-----------------------------------|
G|-----------------------------------|
C|--4-1-1-0-1-1-0-1-0-1-1-1-0-0-1-1--|

2.00
D|---------------------------------------------------|
A|---------------------------------------------------|
F|---------------------------------------------------|
C|--1---1--------1---1--------1---1------------------|
G|--1---1--------1---1--------1---1------------------|
C|--1---1---11~~-1---1---11~~-1---1---11~~-11~~-11~~-|

(riff behind the solo)
D|-----------------------------------|
A|-----------------------------------|
F|-----------------------------------|
C|-----------------------------------|
G|-----------------------------------|
C|--4-1-1-0-1-1-0-1-0-1-1-1-0-0-1-1--|

starts at 2.54
D|-----------------------------------------|
A|-----------------------------------------|
F|-----------------------------------------|
C|--11---9---14---9---11---6------6-6-6-6--|
G|--11---9---14---9---11---6------6-6-6-6--|
C|--11---9---14---9---11---6------6-6-6-6--|

repeat until 4.09
D|-----------------------------------|
A|-----------------------------------|
F|-----------------------------------|
C|-----------------------------------|
G|-----------------------------------|
C|--4-1-1-0-1-1-0-1-0-1-1-1-0-0-1-1--|

demolition part
D|--------------------------------------------------------------------------|
A|--------------------------------------------------------------------------|
F|--------------------------------------------------------------------------|
C|1-1-1-1-1-1-2-3-4-5-6-7-8-9-10-11-12-13-14-15-16-17-18-19-20-21-22-23-24--|
G|1-1-1-1-1-1-2-3-4-5-6-7-8-9-10-11-12-13-14-15-16-17-18-19-20-21-22-23-24--|
C|1-1-1-1-1-1-2-3-4-5-6-7-8-9-10-11-12-13-14-15-16-17-18-19-20-21-22-23-24--|

D|-----------------------------------------------------------------|
A|-----------------------------------------------------------------|
F|-----------------------------------------------------------------|
C|--24-23-22-21-20-19-18-17-16-15-14-13-12-11-10-9-8-7-6-5-4-3-2-1-|
G|--24-23-22-21-20-19-18-17-16-15-14-13-12-11-10-9-8-7-6-5-4-3-2-1-|
C|--24-23-22-21-20-19-18-17-16-15-14-13-12-11-10-9-8-7-6-5-4-3-2-1-|

D|--------------------------------------------------------------------------|
A|--------------------------------------------------------------------------|
F|--------------------------------------------------------------------------|
C|1-1-1-1-1-1-2-3-4-5-6-7-8-9-10-11-12-13-14-15-16-17-18-19-20-21-22-23-24--|
G|1-1-1-1-1-1-2-3-4-5-6-7-8-9-10-11-12-13-14-15-16-17-18-19-20-21-22-23-24--|
C|1-1-1-1-1-1-2-3-4-5-6-7-8-9-10-11-12-13-14-15-16-17-18-19-20-21-22-23-24--|

D|------------------------------------------------------------------------|
A|------------------------------------------------------------------------|
F|----------------------------------------------------8-8-8-8-8-8~~~~~~~~~|
C|-24-23-22-21-20-19-18-17-16-15-14-13-12-11-10-9-8-7-6-6-6-6-6-6~~~~~~~~~|
G|-24-23-22-21-20-19-18-17-16-15-14-13-12-11-10-9-8-7-6-6-6-6-6-6~~~~~~~~~|
C|-24-23-22-21-20-19-18-17-16-15-14-13-12-11-10-9-8-7-6-6-6-6-6-6~~~~~~~~~|

THE END
Tap to rate this tab
 
# A B C D E F G H I J K L M N O P Q R S T U V W X Y Z