Song name
# A B C D E F G H I J K L M N O P Q R S T U V W X Y Z

Rammstein - Zstoren tab

NOTE to who every requested this; the song is called Zestören (Destroy), not Zstoren

Very simple song, easy to figure out ryythem and timng if you play along to the song for 
5 minutes.

Drop C tuning

~ - vibrato
. - palm muted

RIFF
0:13					    0:24

d--------------------------------|--------------------------------|
A--------------------------------|--------------------------------|
F--------------------------------|--------------------------------|
C--------------------------------|--------------------------------|
G--------------------------------|-4-1-1-0-1-1-0-1-0-1-1-0-1-1-0-1|
C-4-1-1-0-1-1-0-1-0-1-1-0-1-1-0-1|-4-1-1-0-1-1-0-1-0-1-1-0-1-1-0-1|

VERSE
0:35

d--------------------------------|
A--------------------------------|
F--------------------------------|
C--------------------------------|
G-4-1-0-0-1-1-1-1-1-1-1-1-1-1-1-1|
C-4-1-0-0-1-1-1-1-1-1-1-1-1-1-1-1|
P.M   . .   . .   .   .   . .

CHORUS
1:08 / 1:18

d--------------------------------|--------------------------------|
A--------------------------------|--------------------------------|
F--------------------------------|--------------------------------|
C--------------------------------|--------------------------------|
G-4-1-1-0-1-1-0-1-0-1-1-0-1-1-0-1|-4-1-1-0-1-1-0-1-0-1-1-0-1-1-0-1|
C-4-1-1-0-1-1-0-1-0-1-1-0-1-1-0-1|-4-1-1-0-1-1-0-1-0-1-1-0-1-1-0-1|

1:14
d--------------------------------|--------------------------------|
A--------------------------------|--------------------------------|
F--------------------------------|--------------------------------|
C--------------------------------|--------------------------------|
G-2-2-2-2-2-2-2-2-2-2-2-2-2-2-2-2|-4-1-1-0-1-1-0-1-0-1-1-0-1-1-0-1|
C-2-2-2-2-2-2-2-2-2-2-2-2-2-2-2-2|-4-1-1-0-1-1-0-1-0-1-1-0-1-1-0-1|

1:24
d--------------------------------|--------------------------------|
A--------------------------------|--------------------------------|
F--------------------------------|--------------------------------|
C--------------------------------|--------------------------------|
G-2-2-2-2-2-2-2-2-2-2-2-2-2-2-2-2|-6-6-6-6-6-6-6-6-6-6-6-6-6-6-6-6|
C-2-2-2-2-2-2-2-2-2-2-2-2-2-2-2-2|-6-6-6-6-6-6-6-6-6-6-6-6-6-6-6-6|

RIFF
1:31

d--------------------------------|--------------------------------|
A--------------------------------|--------------------------------|
F--------------------------------|--------------------------------|
C--------------------------------|--------------------------------|
G-4-1-1-0-1-1-0-1-0-1-1-0-1-1-0-1|-4-1-1-0-1-1-0-1-0-1-1-0-1-1-0-1|
C-4-1-1-0-1-1-0-1-0-1-1-0-1-1-0-1|-4-1-1-0-1-1-0-1-0-1-1-0-1-1-0-1|

BRIDGE
2:00

d--------------------------------|--------------------------------|
A--------------------------------|--------------------------------|
F--------------------------------|--------------------------------|
C--------------------------------|--------------------------------|
G-1---1------------1---1---------|-1---1--------------------------|
C-1---1---15~~~----1---1---15~~~-|-1---1---15~~~----15~~~----15~~~|
  .   .            .   .           .   .

2.54
D|-----------------------------------------|
A|-----------------------------------------|
F|-----------------------------------------|
C|--11---9---14---9---11---6------6-6-6-6--|
G|--11---9---14---9---11---6------6-6-6-6--|
C|--11---9---14---9---11---6------6-6-6-6--|

The ending is simply going mad, one can imagine that neither Richard nor Paul were 
to accorded notes. Full of bends and slides and tremolo picking.
Tap to rate this tab
 
# A B C D E F G H I J K L M N O P Q R S T U V W X Y Z