Guitaretab - guitar tabs
Song name
# A B C D E F G H I J K L M N O P Q R S T U V W X Y Z

Rammstein - Liebe Ist Fuer Alle Da tab

Band: Rammstein
Song name: Liebe ist für alle da
Tuning: CGCFAD



**Drum Intro**


  D|-----------------|
  A|-----------------|
  F|-----------------|
  C|-----------------|
  G|-------/11~------|
  C|--6-5------------|


Guitar 1                                        -
  D|------------------------------------|        |
  A|------------------------------------|        |
  F|------------------------------------|--|     | 
  C|--2-2-2-2--2-2-2--2-2-2--2-2/3------|  |     |
  G|--2-2-2-2--2-2-2--2-2-2--2-2/3------|  |     |
  C|--2-2-2-2--2-2-2--2-2-2--2-2/3------|  |     |
pm    . . .    . .    . .    .             |     |
                                           |--x3 |
                                           |     |
Guitar2                                    |     |
  D|------------------------------------|  |     |
  A|------------------------------------|  |     |
  F|--9-9-9-9--9-9-9--9-9-9--9-9/10-----|--      |
  C|--9-9-9-9--9-9-9--9-9-9--9-x-x------|        |
  G|--7-7-7-7--7-7-7--7-7-7--7-7/8------|        |
  C|------------------------------------|        |
pm    . . .    . .    . .    .                   |--x2
                                                 |	
Guitar 1                                         |
  D|------------------------------------|        |
  A|------------------------------------|        |
  F|------------------------------------|--|     |
  C|--2-2-2-2--2-2-2--2-2-2--2-2/3-3----|  |     |
  G|--2-2-2-2--2-2-2--2-2-2--2-2/3-3----|  |     |
  C|--2-2-2-2--2-2-2--2-2-2--2-2/3-3----|  |     | 
pm    . . .    . .    . .    .             |     |
                                           |--x1 |
                                           |     |
Guitar 2                                   |     |
  D|-------------------------------------| |     |
  A|-------------------------------------| |     |
  F|--9-9-9-9--9-9-9--9-9-9--9-9/10-10---|-|     |
  C|--9-9-9-9--9-9-9--9-9-9--9-x-x--x----|       |
  G|--7-7-7-7--7-7-7--7-7-7--7-7/8--8----|       |
  C|-------------------------------------|       |
pm    . . .    . .    . .    .                   |	
                                                -


Guitar 1
  D|------------------------------------|
  A|------------------------------------|
  F|------------------------------------|
  C|------------------------------------|-|
  G|--6-6-6-6-6--6-6-6-6-6--------------| |
  C|--6-6-6-6-6--6-6-6-6-6--------------| |
pm    . . . . .  . . . . .                |
                                          |-x8
Guitar2                                   |
  D|------------------------------------| |
  A|------------------------------------| |
  F|------------------------------------|-|
  C|------------------------------------|
  G|--6-6-6-6-6--6-6-6-6-6----11/-------|
  C|--6-6-6-6-6--6-6-6-6-6--------------|
pm    . . . . .  . . . . .

Guitar 1
  D|------------------------------------|
  A|------------------------------------|
  F|------------------------------------|--|
  C|--2-2-2-2--2-2-2--2-2-2--2-2/3------|  |
  G|--2-2-2-2--2-2-2--2-2-2--2-2/3------|  | 
  C|--2-2-2-2--2-2-2--2-2-2--2-2/3------|  |
pm    . . .    . .    . .    .             |
                                           |--x3
                                           |
Guitar 2                                   |
  D|------------------------------------|  |
  A|------------------------------------|  |
  F|--9-9-9-9--9-9-9--9-9-9--9-9/10-----|--
  C|--9-9-9-9--9-9-9--9-9-9--9-x-x------|
  G|--7-7-7-7--7-7-7--7-7-7--7-7/8------|
  C|------------------------------------|
pm    . . .    . .    . .    .



Guitar 1
  D|------------------------------------|
  A|------------------------------------|
  F|------------------------------------|--|
  C|--2-2-2-2--2-2-2--2-2-2--2-2/3-3----|  |
  G|--2-2-2-2--2-2-2--2-2-2--2-2/3-3----|  | 
  C|--2-2-2-2--2-2-2--2-2-2--2-2/3-3----|  |
pm    . . .    . .    . .    .             |
                                           |--x1
                                           |
Guitar 2                                   |
  D|-------------------------------------| |
  A|-------------------------------------| |
  F|--9-9-9-9--9-9-9--9-9-9--9-9/10-10---|-|
  C|--9-9-9-9--9-9-9--9-9-9--9-x-x--x----|
  G|--7-7-7-7--7-7-7--7-7-7--7-7/8--8----|
  C|-------------------------------------|



Chorus guitar 1 & 2
  D|--------------------------------|
  A|--------------------------------|-
  F|--6---6-------------------------| |_x1
  C|--6---6---5---2-----------------| |
  G|--4---4---5---2-----------------|-
  C|----------5---2-----------------|

  D|--------------------------------|
  A|--------------------------------|-
  F|--6-6-6-6--6-6-6--6-6-6--6-6/7--| |_x2
  C|--6-6-6-6--6-6-6--6-6-6--6-6/7--| | 
  G|--4-4-4-4--4-4-4--4-4-4--4-4/5--|-
  C|--------------------------------|
pm    . . .    . .    . .    .

  D|--------------------------------|
  A|--------------------------------|-
  F|--------------------------------| |_x1
  C|--5-5-5-5--5-5-5--5-5-5/6---2~--| |
  G|--5-5-5-5--5-5-5--5-5-5/6---2~--|-
  C|--5-5-5-5--5-5-5--5-5-5/6---2~--|
pm    . . .    . .    . . 



**Drum**



Guitar 1 & 2
  D|------------------------------------|
  A|------------------------------------|-
  F|------------------------------------| |_ x4
  C|------------------------------------| |
  G|--6-6-6-6-6--6-6-6-6-6--------------|- 
  C|--6-6-6-6-6--6-6-6-6-6--------------| 
pm    . . . . .  . . . . .		  
					  


Guitar 1
  D|------------------------------------|
  A|------------------------------------|
  F|------------------------------------|
  C|------------------------------------|-|
  G|--6-6-6-6-6--6-6-6-6-6--------------| |
  C|--6-6-6-6-6--6-6-6-6-6--------------| |
pm    . . . . .  . . . . .                |
                                          |-x1
Guitar2	                                  |
  D|------------------------------------| |
  A|------------------------------------| |
  F|------------------------------------|-|
  C|------------------------------------|
  G|--6-6-6-6-6--6-6-6-6-6------/11~----|
  C|--6-6-6-6-6--6-6-6-6-6--6-5---------|
pm    . . . . .  . . . . .

[ Tab from: http://www.guitaretab.com/r/rammstein/191199.html ]
Guitar 1 & 2
  D|------------------------------------|
  A|------------------------------------|-
  F|------------------------------------| |_ x1
  C|------------------------------------| |
  G|--6-6-6-6-6--6-6-6-6-6--------------|- 
  C|--6-6-6-6-6--6-6-6-6-6--------------| 
pm    . . . . .  . . . . .		  


Guitar 1
  D|------------------------------------|
  A|------------------------------------|
  F|------------------------------------|
  C|------------------------------------|-|
  G|--6-6-6-6-6--6-6-6-6-6--------------| |
  C|--6-6-6-6-6--6-6-6-6-6--------------| |
pm    . . . . .  . . . . .                |
                                          |-x1
Guitar2	                                  |
  D|------------------------------------| |
  A|------------------------------------| |
  F|------------------------------------|-|
  C|------------------------------------|
  G|--6-6-6-6-6--6-6-6-6-6------/11~----|
  C|--6-6-6-6-6--6-6-6-6-6--6-5---------|
pm    . . . . .  . . . . .


Guitar 1 & 2
  D|------------------------------------|
  A|------------------------------------|-
  F|------------------------------------| |_ x1
  C|------------------------------------| |
  G|--6-6-6-6-6--6-6-6-6-6--------------|- 
  C|--6-6-6-6-6--6-6-6-6-6--------------| 
pm    . . . . .  . . . . .		  



Guitar 1
  D|------------------------------------|
  A|------------------------------------|
  F|------------------------------------|--|
  C|--2-2-2-2--2-2-2--2-2-2--2-2/3------|  |
  G|--2-2-2-2--2-2-2--2-2-2--2-2/3------|  | 
  C|--2-2-2-2--2-2-2--2-2-2--2-2/3------|  |
pm    . . .    . .    . .    .             |
                                           |--x3
                                           |
Guitar 2                                   |
  D|------------------------------------|  |
  A|------------------------------------|  |
  F|--9-9-9-9--9-9-9--9-9-9--9-9/10-----|--|
  C|--9-9-9-9--9-9-9--9-9-9--9-x-x------|
  G|--7-7-7-7--7-7-7--7-7-7--7-7/8------|
  C|------------------------------------|
pm    . . .    . .    . .    .

Guitar 1
  D|------------------------------------|
  A|------------------------------------|
  F|------------------------------------|--|
  C|--2-2-2-2--2-2-2--2-2-2--2-2/3-3----|  |
  G|--2-2-2-2--2-2-2--2-2-2--2-2/3-3----|  | 
  C|--2-2-2-2--2-2-2--2-2-2--2-2/3-3----|  |
pm    . . .    . .    . .    .             |
                                           |--x1
                                           |
Guitar 2                                   |
  D|-------------------------------------| |
  A|-------------------------------------| |
  F|--9-9-9-9--9-9-9--9-9-9--9-9/10-10---|-|
  C|--9-9-9-9--9-9-9--9-9-9--9-x-x--x----|
  G|--7-7-7-7--7-7-7--7-7-7--7-7/8--8----|
  C|-------------------------------------|
pm    . . .    . .    . .    .



Chorus guitar 1 & 2
  D|--------------------------------|
  A|--------------------------------|-
  F|--6---6-------------------------| |_x1
  C|--6---6---5---2-----------------| |
  G|--4---4---5---2-----------------|-
  C|----------5---2-----------------|

  D|--------------------------------|
  A|--------------------------------|-
  F|--6-6-6-6--6-6-6--6-6-6--6-6/7--| |_x2
  C|--6-6-6-6--6-6-6--6-6-6--6-6/7--| | 
  G|--4-4-4-4--4-4-4--4-4-4--4-4/5--|-
  C|--------------------------------|
pm    . . .    . .    . .    .

  D|--------------------------------|
  A|--------------------------------|-
  F|--------------------------------| |_x1
  C|--5-5-5-5--5-5-5--5-5-5/6---2~--| |
  G|--5-5-5-5--5-5-5--5-5-5/6---2~--|-
  C|--5-5-5-5--5-5-5--5-5-5/6---2~--|
pm    . . .    . .    . . 



Bridge (use the same riff on the solo)
Guitar 1 & 2
  D|--------------------------------|
  A|--------------------------------|-
  F|---------9-9----9/10------------| |_x16
  C|---------9-9----9/10------------| |
  G|--7-7-7--7-7--7-7/8-------------|-
  C|--------------------------------|
pm    . . .       .


*Solo* (i´m not sure) *Tapping*

      T      T      T      T      T      T      T      T
  D|------------------------------------------------------------|
  A|--11p7h9-11p7h9-11p7h9-11p7h9-11p7h9-11p7h9-11p7h9-11p7h9---|-
  F|------------------------------------------------------------| |_ x 4
  C|------------------------------------------------------------| |
  G|------------------------------------------------------------|-
  C|------------------------------------------------------------|



Chorus guitar 1 & 2
  D|--------------------------------|         
  A|--------------------------------|-
  F|--6---6-------------------------| |_x2
  C|--6---6---5---2~----------------| |
  G|--4---4---5---2~----------------|-
  C|----------5---2~----------------|



Guitar 1
  D|------------------------------------|
  A|------------------------------------|
  F|------------------------------------|--|
  C|--2-2-2-2--2-2-2--2-2-2--2-2/3------|  |
  G|--2-2-2-2--2-2-2--2-2-2--2-2/3------|  | 
  C|--2-2-2-2--2-2-2--2-2-2--2-2/3------|  |
pm    . . .    . .    . .    .	            |
                                           |--x3
                                           |
Guitar 2                                   |
  D|------------------------------------|  |
  A|------------------------------------|  |
  F|--9-9-9-9--9-9-9--9-9-9--9-9/10-----|--|
  C|--9-9-9-9--9-9-9--9-9-9--9-x-x------|
  G|--7-7-7-7--7-7-7--7-7-7--7-7/8------|
  C|------------------------------------|
pm    . . .    . .    . .    .

Guitar 1
  D|------------------------------------|
  A|------------------------------------|
  F|------------------------------------|--|
  C|--2-2-2-2--2-2/3--------------------|  |
  G|--2-2-2-2--2-2/3--------------------|  | 
  C|--2-2-2-2--2-2/3--------------------|  |
pm    . . .    .                           |
                                           |--x1
                                           |
Guitar 2                                   |
  D|-------------------------------------| |
  A|-------------------------------------| |
  F|--9-9-9-9--9-9/10--------------------|-|
  C|--9-9-9-9--9-9-x---------------------|
  G|--7-7-7-7--7-7/8---------------------|
  C|-------------------------------------|
pm    . . .    .


By Luis Sánchez --R+--
Related for Liebe Ist Fuer Alle Da tab
×
Liebe Ist Fuer Alle Da