Song name
# A B C D E F G H I J K L M N O P Q R S T U V W X Y Z

Rammstein - Pussy tab

RAMMSTEIN
"Pussy"
2009      
Tuning: Drop C [D-A-F-C-G-C]

* Intro, Chorus, etc.

Guitar I
D||-----------------|-----------------|-----------------|-----------------|
A||-----------------|-----------------|-----------------|-----------------|
F||-----------------|-----------------|-----------------|-----------------|
C||-2-2-2-2-2-2-2-2-|-0-0-0-0-0-0-0-0-|-9-9-9-9-9-9-9-9-|-5-5-5-5-5/7-7-7-|
G||-2-2-2-2-2-2-2-2-|-0-0-0-0-0-0-0-0-|-9-9-9-9-9-9-9-9-|-5-5-5-5-5/7-7-7-|
C||-2-2-2-2-2-2-2-2-|-0-0-0-0-0-0-0-0-|-9-9-9-9-9-9-9-9-|-5-5-5-5-5/7-7-7-|

Guitar II
D||-----------------|-----------------|-----------------|-----------------|
A||-----------------|-----------------|-----------------|-----------------|
F||-----------------|-----------------|-----------------|-----------------|
C||-2-2-2-2-2-2-2-2-|-7-7-7-7-7-7-7-7-|-9-9-9-9-9-9-9-9-|-5-5-5-5-5/7-7-7-|
G||-2-2-2-2-2-2-2-2-|-5-5-5-5-5-5-5-5-|-9-9-9-9-9-9-9-9-|-5-5-5-5-5/7-7-7-|
C||-2-2-2-2-2-2-2-2-|-0-0-0-0-0-0-0-0-|-9-9-9-9-9-9-9-9-|-5-5-5-5-5/7-7-7-|


* Pre-Chorus ("just a little bitch...")

Guitar I
D||-------------------------|     |-------------------------|-------------------------|
A||-------------------------|     |-------------------------|-------------------------|
F||-12-12-12-12-12-12-12-12-| x 2 |-14-14-14-14-14-14-14-14-|-16-16-16-16-16-16-16-16-|
C||-------------------------|     |-------------------------|-------------------------|
G||-10-10-10-10-10-10-10-10-|     |-12-12-12-12-12-12-12-12-|-14-14-14-14-14-14-14-14-|
C||-------------------------|     |-------------------------|-------------------------|

Guitar II
D||-------------------------|     |-------------------------|-------------------------|
A||-------------------------|     |-------------------------|-------------------------|
F||-------------------------| x 2 |-------------------------|-------------------------|
C||-------------------------|     |-------------------------|-------------------------|
G||-------------------------|     |-------------------------|-9--9--9--9--9--9--9--9--|
C||-------------------------|     |-------------------------|-9--9--9--9--9--9--9--9--|
                                                              PM....................]

* Heavy riff ("Germany...")

Both Guitars
D||------------|----------------|
A||------------|----------------|
F||------------|----------------| x 4
C||-------5----|-------7-5-4----|
G||-2-5-2-3----|-2-5-2-5-3-2----|
C||-2-5-2------|-2-5-2----------|


* Bridge

Guitar I
D||----------------------|-------------|
A||----------------------|-------------|
F||----------------------|-------------|
C||-2----0----9----5--7--|-2----0----9-|
G||-2----0----9----5--7--|-2----0----9-|
C||-2----0----9----5--7--|-2----0----9-|

Guitar II
D||----------------------|-------------|
A||----------------------|-------------|
F||----------------------|-------------|
C||-2----7----9----5--7--|-2----7----9-|
G||-2----5----9----5--7--|-2----5----9-|
C||-2----0----9----5--7--|-2----0----9-|
Tap to rate this tab
# A B C D E F G H I J K L M N O P Q R S T U V W X Y Z