Song name
# A B C D E F G H I J K L M N O P Q R S T U V W X Y Z

Rammstein - Pussy tab

Song: Pussy
Artist: Rammstein
Album: Liebe Ist Für Alle Da 
Tuning: Drop C (CGCFAD)


INTRO
Both Guitars 2x
D|------------------------------------------------------------------| 
A|------------------------------------------------------------------|
F|---------------------------------4-4-4-4-4-4-4-4------------------|
C|-2-2-2-2-2-2-2-2-7-7-7-7-7-7-7-7-4-4-4-4-4-4-4-4-5-5-5-5-5/7-7-7--| 
G|-2-2-2-2-2-2-2-2-5-5-5-5-5-5-5-5-2-2-2-2-2-2-2-2-5-5-5-5-5/7-7-7--|
C|-2-2-2-2-2-2-2-2-0-0-0-0-0-0-0-0-----------------5-5-5-5-5/7-7-7--|

Keyboard 2x
D|-12--12--1212--1214--14--1414--1410--10--1010--1015--15--14--14---| 
A|-x---x---x-x---x-x---x---x-x---x-x---x---x-x---x-x---x---x---x----|
F|-9---9---9-9---9-11--11--1111--117---7---7-7---7-12--12--11--11---|
C|------------------------------------------------------------------| 
G|------------------------------------------------------------------|
C|------------------------------------------------------------------|



VERSE
Just Bass


PRE-CHORUS

Guitar
F|------------------------------------------------------------------| 
A|------------------------------------------------------------------|
F|-1212121212121212121212121212121214141414141414141616161616161616-|
C|-x-x-x-x-x-x-x-x-x-x-x-x-x-x-x-x-x-x-x-x-x-x-x-x-x-x-x-x-x-x-x-x--| 
G|-1010101010101010101010101010101012121212121212121414141414141414-|
C|------------------------------------------------------------------|

Keyboard (yes, it’s 24, 20, 21)
D|-24-20---------------------24-20----------------------------------| 
A|------------------------------------------------------------------|
F|------21-------------------------21-------------------------------|
C|------------------------------------------------------------------| 
G|------------------------------------------------------------------|
C|------------------------------------------------------------------|



CHORUS

Both Guitars 2x
D|------------------------------------------------------------------| 
A|------------------------------------------------------------------|
F|---------------------------------4-4-4-4-4-4-4-4------------------|
C|-2-2-2-2-2-2-2-2-7-7-7-7-7-7-7-7-4-4-4-4-4-4-4-4-5-5-5-5-5/7-7-7--| 
G|-2-2-2-2-2-2-2-2-5-5-5-5-5-5-5-5-2-2-2-2-2-2-2-2-5-5-5-5-5/7-7-7--|
C|-2-2-2-2-2-2-2-2-0-0-0-0-0-0-0-0-----------------5-5-5-5-5/7-7-7--|

D|------------------------------------------------------------------| 
A|------------------------------------------------------------------|
F|---------------------------------4-4-4-4-4-4-4-4------------------|
C|-2-2-2-2-2-2-2-2-7-7-7-7-7-7-7-7-4-4-4-4-4-4-4-4-5---5---4---4----| 
G|-2-2-2-2-2-2-2-2-5-5-5-5-5-5-5-5-2-2-2-2-2-2-2-2-5---5---4---4----|
C|-2-2-2-2-2-2-2-2-0-0-0-0-0-0-0-0-----------------5---5---4---4----|

Keyboard 2x
D|-12--12--1212--1214--14--1414--1410--10--1010--1015--15--14/15\14-| 
A|-x---x---x-x---x-x---x---x-x---x-x---x---x-x---x-x---x---x--x--x--|
F|-9---9---9-9---9-11--11--1111--117---7---7-7---7-12--12--11/12\11-|
C|------------------------------------------------------------------| 
G|------------------------------------------------------------------|
C|------------------------------------------------------------------|

D|-12--12--1212--1214--14--1414--1410--10--1010--1015--15--14--14---| 
A|-x---x---x-x---x-x---x---x-x---x-x---x---x-x---x-x---x---x---x----|
F|-9---9---9-9---9-11--11--1111--117---7---7-7---7-12--12--11--11---|
C|------------------------------------------------------------------| 
G|------------------------------------------------------------------|
C|------------------------------------------------------------------|



VERSE 2

Keyboard
D|-19-17-----------19-17-----------19-17----19----------------19~--------17-| 
A|-------20-17~----------20-15~----------20----19~---------19------19-20----|
F|------------------------------------------------------16------------------|
C|--------------------------------------------------------------------------| 
G|--------------------------------------------------------------------------|
C|--------------------------------------------------------------------------|

D|-19-17---------19-17----19-17---------19-17----19--------22-19------------| 
A|-------20-17~--------20-------20-15~--------20----19~----------19-12*-----|
F|--------------------------------------------------------------------------|
C|--------------------------------------------------------------------------| 
G|--------------------------------------------------------------------------|
C|--------------------------------------------------------------------------|
The actual note is an octave higher than A-19, but A-12* works fine.

D|-19-17---------19-17----19-17---------19-17----19--------------19~--22-24-| 
A|-------20-17~--------20-------20-15~--------20----19~-------17------------|
F|---------------------------------------------------------16---------------|
C|--------------------------------------------------------------------------| 
G|--------------------------------------------------------------------------|
C|--------------------------------------------------------------------------|

D|-19-17---------19-17----19-17---------19-17----19-------------------------| 
A|-------20-17~--------20-------20-15~--------20----19~---------------------|
F|--------------------------------------------------------------------------|
C|--------------------------------------------------------------------------| 
G|--------------------------------------------------------------------------|
C|--------------------------------------------------------------------------|



BRIDGE

Both Guitars 2x
D|------------------------------------------------------------------| 
A|------------------------------------------------------------------|
F|-------5-------------------------------5--------------------------|
C|-2-0-2-5--------------7\5-4------2-0-2-5---------2-0-2-7\5-4------| 
G|-2-0-2-3--------2-0-2-5\3-2------2-0-2-3---------2-0-2-5\3-2------|
C|-2-0-2----------2-0-2------------2-0-2-----------2-0-2------------|

then

Keyboard   
D|-12--12----12--1214--14----14--1410--10----10--1015--15--14/15\14-| 
A|-x---x-----x---x-x---x-----x---x-x---x-----x---x-x---x---x--x--x--|
F|-9---9-----9---9-11--11----11--117---7-----7---7-12--12--11/12\11-|
C|------------------------------------------------------------------| 
G|------------------------------------------------------------------|
C|------------------------------------------------------------------|

D|-12--12----12--1214--14----14--1410--10----10--1015--15--14--14---| 
A|-x---x-----x---x-x---x-----x---x-x---x-----x---x-x---x---x---x----|
F|-9---9-----9---9-11--11----11--117---7-----7---7-12--12--11--11---|
C|------------------------------------------------------------------| 
G|------------------------------------------------------------------|
C|------------------------------------------------------------------|

Guitars Fade In
D|------------------------------------------------------------------| 
A|------------------------------------------------------------------|
F|---------------------------------4~-------------------------------|
C|------------------------~7-------4~-------------------------------| 
G|------------------------~5-------2~-------------------------------|
C|------------------------~0----------------------------------------|

Then Kick
D|------------------------------------------------------------------| 
A|------------------------------------------------------------------|
F|---------------------------------4~-------------------------------|
C|-2~--------------7~--------------4~--------------5~------7~-------| 
G|-2~--------------5~--------------2~--------------5~------7~-------|
C|-2~--------------0~------------------------------5~------7~-------|

D|------------------------------------------------------------------| 
A|------------------------------------------------------------------|
F|---------------------------------4--------------------------------|
C|-2~--------------7~--------------4--------------------------------| 
G|-2~--------------5~--------------2--------------------------------|
C|-2~--------------0~-----------------------------------------------|



Repeat CHORUS

Everything is the same in the final Chorus except:

Keyboard ending
D|-12--12----12--1214--14----14--1410--10----10--1015--15--19-17-19-| 
A|-x---x-----x---x-x---x-----x---x-x---x-----x---x-x---x------------|
F|-9---9-----9---9-11--11----11--117---7-----7---7-12--12-----------|
C|------------------------------------------------------------------| 
G|------------------------------------------------------------------|
C|------------------------------------------------------------------|

And yer done.

Key:
* - Articfical Harmonic
/ - Slide up
\ - Slide down
x - Mute Note
~ - Hold

Tap to rate this tab
 
# A B C D E F G H I J K L M N O P Q R S T U V W X Y Z