Song name
# A B C D E F G H I J K L M N O P Q R S T U V W X Y Z

Rammstein - Pussy tab

Intro

Guitar I
D||-------------|-------------|-------------|-----------------|-
A||-------------|-------------|-------------|-----------------| |
F||-------------|-7-7-7-7-7---|-4-4-4-4-4---|-----------------| |
C||-2-2-2-2-2---|-7-7-7-7-7---|-4-4-4-4-4---|-5-5-4-7-7-0-----| |
G||-2-2-2-2-2---|-5-5-5-5-5---|-2-2-2-2-2---|-5-5-4-7-7-0-----| |
C||-2-2-2-2-2---|-------------|-------------|-5-5-4-7-7-0-----| |
                                                                -x1
Guitar II                                                       | 
D||-------------|-------------|-------------|-----------------| |
A||-------------|-------------|-------------|-----------------| |
F||-------------|-------------|-------------|-----------------| |
C||-2-2-2-2-2---|-0-0-0-0-0---|-9-9-9-9-9---|-5-5-4-7-7-0-----| |
G||-2-2-2-2-2---|-0-0-0-0-0---|-9-9-9-9-9---|-5-5-4-7-7-0-----| |
C||-2-2-2-2-2---|-0-0-0-0-0---|-9-9-9-9-9---|-5-5-4-7-7-0-----|-


Guitar I
D||-------------|-------------|-------------|-------------|-
A||-------------|-------------|-------------|-------------| |
F||-------------|-7-7-7-7-7---|-4-4-4-4-4---|-------------| |
C||-2-2-2-2-2---|-7-7-7-7-7---|-4-4-4-4-4---|-5~~-4~~-----| |
G||-2-2-2-2-2---|-5-5-5-5-5---|-2-2-2-2-2---|-5~~-4~~-----| |
C||-2-2-2-2-2---|-------------|-------------|-5~~-4~~-----| |
                                                             -x1
Guitar II                                                   | 
D||-------------|-------------|-------------|-------------| |
A||-------------|-------------|-------------|-------------| |
F||-------------|-------------|-------------|-------------| |
C||-2-2-2-2-2---|-0-0-0-0-0---|-9-9-9-9-9---|-5~~--4~~----| |
G||-2-2-2-2-2---|-0-0-0-0-0---|-9-9-9-9-9---|-5~~--4~~----| |
C||-2-2-2-2-2---|-0-0-0-0-0---|-9-9-9-9-9---|-5~~--4~~----|-




Pre
Guitar I
D||-------------------|-------------------|
A||-------------------|-------------------|
F||-12-12-12-12-12-12-|-12-12-12-12-12-12-|
C||-X--X--X--X--X--X--|-X--X--X--X--X--X--| 
G||-10-10-10-10-10-10-|-10-10-10-10-10-10-| 
C||-------------------|-------------------|

D||-------------------|-------------------|
A||-------------------|-------------------|
F||-14-14-14-14-14-14-|-16-16-16-16-16-16-|
C||-X--X--X--X--X--X--|-X--X--X--X--X--X--| 
G||-12-12-12-12-12-12-|-14-14-14-14-14-14-| 
C||-------------------|-------------------|


Chorus

Guitar I
D||-------------|-------------|-------------|-----------------|-
A||-------------|-------------|-------------|-----------------| |
F||-------------|-7-7-7-7-7---|-4-4-4-4-4---|-----------------| |
C||-2-2-2-2-2---|-7-7-7-7-7---|-4-4-4-4-4---|-5-5-4-7-7-0-----| |
G||-2-2-2-2-2---|-5-5-5-5-5---|-2-2-2-2-2---|-5-5-4-7-7-0-----| |
C||-2-2-2-2-2---|-------------|-------------|-5-5-4-7-7-0-----| |
                                                                -- 
Guitar II                                                       | |
D||-------------|-------------|-------------|-----------------| | |
A||-------------|-------------|-------------|-----------------| | |
F||-------------|-------------|-------------|-----------------| | |
C||-2-2-2-2-2---|-0-0-0-0-0---|-9-9-9-9-9---|-5-5-4-7-7-0-----| | |
G||-2-2-2-2-2---|-0-0-0-0-0---|-9-9-9-9-9---|-5-5-4-7-7-0-----| | |
C||-2-2-2-2-2---|-0-0-0-0-0---|-9-9-9-9-9---|-5-5-4-7-7-0-----|-  |
                                                                  |
                                                                  |--x2
Guitar I                                                          |
D||-------------|-------------|-------------|-------------|-      |
A||-------------|-------------|-------------|-------------| |     |
F||-------------|-7-7-7-7-7---|-4-4-4-4-4---|-------------| |     |
C||-2-2-2-2-2---|-7-7-7-7-7---|-4-4-4-4-4---|-5~~-4~~-----| |     |
G||-2-2-2-2-2---|-5-5-5-5-5---|-2-2-2-2-2---|-5~~-4~~-----| |     |
C||-2-2-2-2-2---|-------------|-------------|-5~~-4~~-----| |     |
                                                             -----|
Guitar II                                                   | 
D||-------------|-------------|-------------|-------------| |
A||-------------|-------------|-------------|-------------| |
F||-------------|-------------|-------------|-------------| |
C||-2-2-2-2-2---|-0-0-0-0-0---|-9-9-9-9-9---|-5~~--4~~----| |
G||-2-2-2-2-2---|-0-0-0-0-0---|-9-9-9-9-9---|-5~~--4~~----| |
C||-2-2-2-2-2---|-0-0-0-0-0---|-9-9-9-9-9---|-5~~--4~~----|-


Pre
Guitar I
D||-------------------|-------------------|
A||-------------------|-------------------|
F||-12-12-12-12-12-12-|-12-12-12-12-12-12-|
C||-X--X--X--X--X--X--|-X--X--X--X--X--X--| 
G||-10-10-10-10-10-10-|-10-10-10-10-10-10-| 
C||-------------------|-------------------|

D||-------------------|-------------------|
A||-------------------|-------------------|
F||-14-14-14-14-14-14-|-16-16-16-16-16-16-|
C||-X--X--X--X--X--X--|-X--X--X--X--X--X--| 
G||-12-12-12-12-12-12-|-14-14-14-14-14-14-| 
C||-------------------|-------------------|

Chorus

Guitar I
D||-------------|-------------|-------------|-----------------|-
A||-------------|-------------|-------------|-----------------| |
F||-------------|-7-7-7-7-7---|-4-4-4-4-4---|-----------------| |
C||-2-2-2-2-2---|-7-7-7-7-7---|-4-4-4-4-4---|-5-5-4-7-7-0-----| |
G||-2-2-2-2-2---|-5-5-5-5-5---|-2-2-2-2-2---|-5-5-4-7-7-0-----| |
C||-2-2-2-2-2---|-------------|-------------|-5-5-4-7-7-0-----| |
                                                                -- 
Guitar II                                                       | |
D||-------------|-------------|-------------|-----------------| | |
A||-------------|-------------|-------------|-----------------| | |
F||-------------|-------------|-------------|-----------------| | |
C||-2-2-2-2-2---|-0-0-0-0-0---|-9-9-9-9-9---|-5-5-4-7-7-0-----| | |
G||-2-2-2-2-2---|-0-0-0-0-0---|-9-9-9-9-9---|-5-5-4-7-7-0-----| | |
C||-2-2-2-2-2---|-0-0-0-0-0---|-9-9-9-9-9---|-5-5-4-7-7-0-----|-  |
                                                                  |
                                                                  |--x2
Guitar I                                                          |
D||-------------|-------------|-------------|-------------|-      |
A||-------------|-------------|-------------|-------------| |     |
F||-------------|-7-7-7-7-7---|-4-4-4-4-4---|-------------| |     |
C||-2-2-2-2-2---|-7-7-7-7-7---|-4-4-4-4-4---|-5~~-4~~-----| |     |
G||-2-2-2-2-2---|-5-5-5-5-5---|-2-2-2-2-2---|-5~~-4~~-----| |     |
C||-2-2-2-2-2---|-------------|-------------|-5~~-4~~-----| |     |
                                                             -----|
Guitar II                                                   | 
D||-------------|-------------|-------------|-------------| |
A||-------------|-------------|-------------|-------------| |
F||-------------|-------------|-------------|-------------| |
C||-2-2-2-2-2---|-0-0-0-0-0---|-9-9-9-9-9---|-5~~--4~~----| |
G||-2-2-2-2-2---|-0-0-0-0-0---|-9-9-9-9-9---|-5~~--4~~----| |
C||-2-2-2-2-2---|-0-0-0-0-0---|-9-9-9-9-9---|-5~~--4~~----|-



Bridge
D||-----------|--------------|-----------|--------------|-
A||-----------|--------------|-----------|--------------| |
F||-------5---|-----7-7/5/4--|-------5---|-----5/7/5/4--| |_X2
C||-0-2-0-5---|-0-2-7-7/5/4--|-0-2-0-5---|-0-2-5/7/5/4--| |
G||-0-2-0-3---|-0-2-5-5/3/2--|-0-2-0-3---|-0-2-3/5/3/2--| |
C||-0-2-0-----|-0-2----------|-0-2-0-----|-0-2----------|-


Guitar I
D||--------------------|---------------|
A||--------------------|---------------|
F||--------------------|---------4-----|
C||-2~~-0~~-9~~-5~-7~--|-2~~-0~~-4-----|-
G||-2~~-0~~-9~~-5~-7~--|-2~~-0~~-2-----| |
C||-2~~-0~~-9~~-5~-7~--|-2~~-0~~-------| |
                                         |  
Guitar II                                |-x2 (At First, with Low Volumen) 
D||--------------------|---------------| |
A||--------------------|---------------| |
F||--------------------|---------4-----|-
C||-2~~-0~~-9~~-5~-7~--|-2~~-0~~-4-----|
G||-2~~-0~~-9~~-5~-7~--|-2~~-0~~-2-----|
C||-2~~-0~~-9~~-5~-7~--|-2~~-0~~-------|



Chorus

Guitar I
D||-------------|-------------|-------------|-----------------|-
A||-------------|-------------|-------------|-----------------| |
F||-------------|-7-7-7-7-7---|-4-4-4-4-4---|-----------------| |
C||-2-2-2-2-2---|-7-7-7-7-7---|-4-4-4-4-4---|-5-5-4-7-7-0-----| |
G||-2-2-2-2-2---|-5-5-5-5-5---|-2-2-2-2-2---|-5-5-4-7-7-0-----| |
C||-2-2-2-2-2---|-------------|-------------|-5-5-4-7-7-0-----| |
                                                                ----
Guitar II                                                       |   |
D||-------------|-------------|-------------|-----------------| |   |
A||-------------|-------------|-------------|-----------------| |   |
F||-------------|-------------|-------------|-----------------| |   |
C||-2-2-2-2-2---|-0-0-0-0-0---|-9-9-9-9-9---|-5-5-4-7-7-0-----| |   |
G||-2-2-2-2-2---|-0-0-0-0-0---|-9-9-9-9-9---|-5-5-4-7-7-0-----| |   |
C||-2-2-2-2-2---|-0-0-0-0-0---|-9-9-9-9-9---|-5-5-4-7-7-0-----|-    |
                                                                    |
                                                                    |--x2
Guitar I                                                            |
D||-------------|-------------|-------------|-----------------|--   |
A||-------------|-------------|-------------|-----------------|  |  |
F||-------------|-7-7-7-7-7---|-4-4-4-4-4---|-----------------|  |  |
C||-2-2-2-2-2---|-7-7-7-7-7---|-4-4-4-4-4---|-5~~-4~~---------|  |  |
G||-2-2-2-2-2---|-5-5-5-5-5---|-2-2-2-2-2---|-5~~-4~~---------|  |  |
C||-2-2-2-2-2---|-------------|-------------|-5~~-4~~---------|  |  |
                                                                 |--|
Guitar II                                                        |  |
D||-------------|-------------|-------------|--------------------|  |
A||-------------|-------------|-------------|--------------------|  |
F||-------------|-------------|-------------|---------in the end-|  |
C||-2-2-2-2-2---|-0-0-0-0-0---|-9-9-9-9-9---|-5~~--4~~--(2)------|  |
G||-2-2-2-2-2---|-0-0-0-0-0---|-9-9-9-9-9---|-5~~--4~~--(2)------|  |
C||-2-2-2-2-2---|-0-0-0-0-0---|-9-9-9-9-9---|-5~~--4~~--(2)------|--



By Luis_Sánchez


Tap to rate this tab
# A B C D E F G H I J K L M N O P Q R S T U V W X Y Z