Song name
# A B C D E F G H I J K L M N O P Q R S T U V W X Y Z

Rammstein - Pussy tab

()()()()()()()()()PUSSY()()()()()()()()()() 
Rammstein
=This is version in standard  tuning

*Guitar
e---------------------------------------------------------|
B---------------------------------------------------------|
G---------------------------------------------------------|
D--7--7-7--7-7---9--9-9--9-9--------------10-10--9/10/9---|
A--5--5-5--5-5---7--7-7--7-7--7--7-7--7-7--8--8--7/ 8/7---|
E-----------------------------5--5-5--5-5-----------------|
********************intro**********************************

BASS TAB↓**
e--------------------------------------------------------------------|
B--------------------------------------------------------------------|
G--------------------------------------------------------------------|
D--------------------------------------------------------------------|
A--5-5-5-5-5-5-5-5-3-3-3-3-3-3-3-3-----------------------------------|
E----------------------------------5-5-5-5-5-5-5-5-1-1-1-1-1-3-3-3---|
Too big, too small,
Size does matter after all.

e--------------------------------------------------------------------|
B--------------------------------------------------------------------|
G--------------------------------------------------------------------|
D--------------------------------------------------------------------|
A--5-5-5-5-5-5-5-5-3-3-3-3-3-3-3-3-----------------------------------|
E----------------------------------5-5-5-5-5-5-5-5-5-5-5-5-5-5-5-5---|
Zu groß, zu klein,
Er könnte etwas größer sein.

e--------------------------------------------------------------------|
B--------------------------------------------------------------------|
G--------------------------------------------------------------------|
D--------------------------------------------------------------------|
A--5-5-5-5-5-5-5-5-3-3-3-3-3-3-3-3-----------------------------------|
E----------------------------------5-5-5-5-5-5-5-5-1-1-1-1-1-3-3-3---|
Mercedes-Benz und Autobahn,
Alleine in das Ausland fahren,

e--------------------------------------------------------------------|
B--------------------------------------------------------------------|
G--------------------------------------------------------------------|
D--------------------------------------------------------------------|
A--5-5-5-5-5-5-5-5-3-3-3-3-3-3-3-3-----------------------------------|
E----------------------------------5-5-5-5-5-5-5-5-5-5-5-5-5-5-5-5---|
Reise, Reise, Fahrvergnügen
Ich will nur Spaß, mich nicht verlieben

*Guitar
e-----------------------------------|
B--6-6-6-6-6-6-6-6-6-6-6-6-6-6-6-6--|
G-----------------------------------|
D-----------------------------------|
A-----------------------------------|
E-----------------------------------|
Just a little bit...

e-------------------------------------------|
B--8-8-8-8-8-8-8-8-10-10-10-10-10-10-10-10--|
G-------------------------------------------|
D-------------------------------------------|
A-------------------------------------------|
E-------------------------------------------|
Just a little bitch!


e---------------------------------------------------------|
B---------------------------------------------------------|
G---------------------------------------------------------|
D--7--7-7--7-7---9--9-9--9-9--------------10-10--9/10/9---|
A--5--5-5--5-5---7--7-7--7-7--7--7-7--7-7--8--8--7/ 8/7---|
E-----------------------------5--5-5--5-5-----------------|
You've got a pussy, I have a dick,
So what's the problem? Let's do it quick.
So take me now before it's too late, Life's too short, so I can't wait.
Take me now, oh don't you see, I can't get laid in Germany.


BASS TAB↓*
e--------------------------------------------------------------------|
B--------------------------------------------------------------------|
G--------------------------------------------------------------------|
D--------------------------------------------------------------------|
A--5-5-5-5-5-5-5-5-3-3-3-3-3-3-3-3-----------------------------------|
E----------------------------------5-5-5-5-5-5-5-5-1-1-1-1-1-3-3-3---|
Too short, too tall,
Doesn't matter, one size fits all.

e--------------------------------------------------------------------|
B--------------------------------------------------------------------|
G--------------------------------------------------------------------|
D--------------------------------------------------------------------|
A--5-5-5-5-5-5-5-5-3-3-3-3-3-3-3-3-----------------------------------|
E----------------------------------5-5-5-5-5-5-5-5-5-5-5-5-5-5-5-5---|
Zu groß, zu klein,
Der Schlagbaum sollte oben sein.

e--------------------------------------------------------------------|
B--------------------------------------------------------------------|
G--------------------------------------------------------------------|
D--------------------------------------------------------------------|
A--5-5-5-5-5-5-5-5-3-3-3-3-3-3-3-3-----------------------------------|
E----------------------------------5-5-5-5-5-5-5-5-1-1-1-1-1-3-3-3---|
Schönes Fräulein, Lust auf mehr?
Blitzkrieg mit dem Fleischgewehr!

e--------------------------------------------------------------------|
B--------------------------------------------------------------------|
G--------------------------------------------------------------------|
D--------------------------------------------------------------------|
A--5-5-5-5-5-5-5-5-3-3-3-3-3-3-3-3-----------------------------------|
E----------------------------------5-5-5-5-5-5-5-5-5-5-5-5-5-5-5-5---|
Schnaps im Kopf, du holde Braut,
steck Bratwurst in dein Sauerkraut!

*Guitar
e-----------------------------------|
B--6-6-6-6-6-6-6-6-6-6-6-6-6-6-6-6--|
G-----------------------------------|
D-----------------------------------|
A-----------------------------------|
E-----------------------------------|
Just a little bit...

e-------------------------------------------|
B--8-8-8-8-8-8-8-8-10-10-10-10-10-10-10-10--|
G-------------------------------------------|
D-------------------------------------------|
A-------------------------------------------|
E-------------------------------------------|
Just a little bitch!


e---------------------------------------------------------|
B---------------------------------------------------------|
G---------------------------------------------------------|
D--7--7-7--7-7---9--9-9--9-9--------------10-10--9/10/9---|
A--5--5-5--5-5---7--7-7--7-7--7--7-7--7-7--8--8--7/ 8/7---|
E-----------------------------5--5-5--5-5-----------------|
You've got a pussy, I have a dick,
So what's the problem? Let's do it quick.
So take me now before it's too late, Life's too short, so I can't wait.
Take me now, oh don't you see, I can't get laid in Germany.

e-------------------------------|x2
B-------------------------------|
G-------------------------------|
D---5--7-7-7---5-7-7--5-7-7-----|
A---3--5-5-5---3-5-5--3-5-5-----|
E-------------------------------|
#
Germany!
#
Germany!

You've got a pussy,
I have a dick,
So what's the problem?
Let's do it quick!

e--------------------------------|
B--------------------------------|
G--------------------------------|
D--7----5------------7----5------|
A--5----3----7--3/5--5----3----7-|
E------------5--1/3------------5-|
You've got a pussy,
I have a dick,
So what's the problem?
Let's do it quick!


e---------------------------------------------------------|
B---------------------------------------------------------|
G---------------------------------------------------------|
D--7--7-7--7-7---9--9-9--9-9--------------10-10--9/10/9---|
A--5--5-5--5-5---7--7-7--7-7--7--7-7--7-7--8--8--7/ 8/7---|
E-----------------------------5--5-5--5-5-----------------|
You've got a pussy, I have a dick,
So what's the problem? Let's do it quick.
So take me now before it's too late, Life's too short, so I can't wait.
Take me now, oh don't you see, I can't get laid in Germany.

The End

*Guitar Tab
**Bass Tab

Tab by Paja_94                                              

Tap to rate this tab
# A B C D E F G H I J K L M N O P Q R S T U V W X Y Z