Song name
# A B C D E F G H I J K L M N O P Q R S T U V W X Y Z

Rammstein - Waidmanns Heil tab

created by David Rau

Rammstein - Waidmanns Heil


  Part 1:

  e|------------------------------------------------------------------|
  B|------------------------------------------------------------------|
  D|------------------------------------------------------------------|
  G|--0--0-0-0-0-0-0---1--0--0-0-0-0---0--0-0-0-0-0-0--1--0--3--5-----|
  A|--0--0-0-0-0-0-0---1--0--0-0-0-0---0--0-0-0-0-0-0--1--0--3--5-----|
  D|--0--0-0-0-0-0-0---1--0--0-0-0-0---0--0-0-0-0-0-0--1--0--3--5-----|
  pm   . . . . . .        . . . .      . . . . . .

  Part 2:


  e|----------------------------------|
  B|----------------------------------|
  D|----------------------------------|
  G|--0--0-0-0-0-0-0---1-0--0-0-0-0---|
  A|--0--0-0-0-0-0-0---1-0--0-0-0-0---|
  D|--0--0-0-0-0-0-0---1-0--0-0-0-0---|
  pm  .  . . . . . .   . .  . . . .


  Part 3:

  e|------------------------|
  B|------------------------|
  D|------------------------|
  G|--0--0--0--0---0-0-0-0--|
  A|--0--0--0--0---0-0-0-0--|
  D|--0--0--0--0---0-0-0-0--|
  pm  .  .  .  .   . . . .


created by David Rau
Tap to rate this tab
 
# A B C D E F G H I J K L M N O P Q R S T U V W X Y Z