Song name
# A B C D E F G H I J K L M N O P Q R S T U V W X Y Z

Rammstein - Ich Tu Dir Weh tab

----------------------------------------------------------------------------
			 Ich Tu Dir Weh - Rammstein
----------------------------------------------------------------------------

Tabbed by: Bee-Ay
Email: Leviathan_ben@hotmail.com

Tuning: D-A-D-G-B-E


Well....? Pretty badass....


Intro:
e|---------------|-----------------|-----------------|---------------|
B|---------------|-----------------|-----------------|---------------|
G|---------------|-----------------|-----------------|---------------|
D|---------------|-----------------|-----------------|---------------|
A|-0--0--0-0-0---|---0--0--0-0-0---|---0--0--0-0-0---|---0--0--0-0-0-|
D|-0--0--0-0-0---|---0--0--0-0-0---|---0--0--0-0-0---|---0--0--0-0-0-|


Meanest riff on planet!:
e|----------------------------------------------------|
B|----------------------------------------------------|
G|*--------------------------------------------------*|
D|*-0---0-------0---0-------0---0--------5-3-0-6-3-0-*|
A|--0-0-0-0-0-0-0-0-0-0-0-0-0-0-0-0-0-0--5-3-0-6-3-0--|
D|--0-0-0-0-0-0-0-0-0-0-0-0-0-0-0-0-0-0--5-3-0-6-3-0--|
pm    .   . . .   .   . . .   .   . . .

Verse:
Guitar 1: This guitar repeats this all the way to chorus:
e|--------------------------------------------------|
B|--------------------------------------------------|
G|--------------------------------------------------|
D|--------------------------------------------------|
A|--5---5-------5---5-------5---5-------5---5-------|
D|--0-0-0-0-0-0-0-0-0-0-0-0-0-0-0-0-0-0-0-0-0-0-0-0-|
pm    .   . . .   .   . . .   .   . . .   .   . . .


Guitar 2: Makes variations.
e|--------------------------------------------------|
B|--------------------------------------------------|
G|--------------------------------------------------|
D|--------------------------------------------------| x6
A|--5---5-------5---5-------5---5-------15--15--15--|
D|--0-0-0-0-0-0-0-0-0-0-0-0-0-0-0-0-0-0-0-0-0-0-0-0-|
pm    .   . . .   .   . . .   .   . . .   .   .   .

Guitar 2:
e|--------------------------------------------------|
B|--------------------------------------------------|
G|--------------------------------------------------|
D|--------------------------------------------------|
A|--5---5-------5---5-------7---7-------7---7-------|
D|--0-0-0-0-0-0-0-0-0-0-0-0-0-0-0-0-0-0-0-0-0-0-0-0-|
pm    .   . . .   .   . . .   .   . . .   .   . . .


e|--------------------------------------------------|
B|--------------------------------------------------|
G|--------------------------------------------------|
D|--------------------------------------------------| x2
A|--8---8-------8---8-------10--10------10--10------|
D|--0-0-0-0-0-0-0-0-0-0-0-0-0-0-0-0-0-0-0-0-0-0-0-0-|
pm    .   . . .   .   . . .   .   . . .   .   . . .

Chorus:
Guitar 1:
e|--------------------------------------------------------------------------|
B|--------------------------------------------------------------------------|
G|*-------------------------------------------------------------------------|
D|*-0---0-------0---0-------3---3-------3---3-------3---3-------3---3-------|
A|--0-0-0-0-0-0-0-0-0-0-0-0-3-3-3-3-3-3-3-3-3-3-3-3-3-3-3-3-3-3-3-3-3-3-3-3-|
D|--0-0-0-0-0-0-0-0-0-0-0-0-3-3-3-3-3-3-3-3-3-3-3-3-3-3-3-3-3-3-3-3-3-3-3-3-|
pm    .   . . .   .   . . .   .   . . .   .   . . .   .   . . .   .   . . .

e|-------------------------------------------------------------------------|
B|-------------------------------------------------------------------------|
G|-------------------------------------------------------------------------|
D|-5---5-------5---5-------8---8-------8---8-------0---0-------0---0-------|
A|-5-5-5-5-5-5-5-5-5-5-5-5-8-8-8-8-8-8-8-8-8-8-8-8-0-0-0-0-0-0-0-0-0-0-0-0-|
D|-5-5-5-5-5-5-5-5-5-5-5-5-8-8-8-8-8-8-8-8-8-8-8-8-0-0-0-0-0-0-0-0-0-0-0-0-|
pm   .   . . .   .   . . .   .   . . .   .   . . .   .   . . .   .   . . .

e|--------------------------------------------------|
B|--------------------------------------------------|
G|-------------------------------------------------*|
D|-7-7-7-7-7-7-7-7-7-7-7-7-7-7-7-7-7-7-7-7-7-7-7-7-*|
A|-7-7-7-7-7-7-7-7-7-7-7-7-7-7-7-7-7-7-7-7-7-7-7-7--|
D|-7-7-7-7-7-7-7-7-7-7-7-7-7-7-7-7-7-7-7-7-7-7-7-7--|


Guitar 2: Makes variations.
e|--------------------------------------------------------------------------|
B|--------------------------------------------------------------------------|
G|*-------------------------------------------------------------------------|
D|*-------------------------3---3-------3---3-------3---3-------3---3-------|
A|--5---5-------5---5-------3-3-3-3-3-3-3-3-3-3-3-3-3-3-3-3-3-3-3-3-3-3-3-3-|
D|--0-0-0-0-0-0-0-0-0-0-0-0-3-3-3-3-3-3-3-3-3-3-3-3-3-3-3-3-3-3-3-3-3-3-3-3-|
pm    .   . . .   .   . . .   .   . . .   .   . . .   .   . . .   .   . . .

e|-------------------------------------------------------------------------|
B|-------------------------------------------------------------------------|
G|-------------------------------------------------------------------------|
D|-5---5-------5---5-------8---8-------8---8-------------------------------|
A|-5-5-5-5-5-5-5-5-5-5-5-5-8-8-8-8-8-8-8-8-8-8-8-8-5---5-------5---5-------|
D|-5-5-5-5-5-5-5-5-5-5-5-5-8-8-8-8-8-8-8-8-8-8-8-8-0-0-0-0-0-0-0-0-0-0-0-0-|
pm   .   . . .   .   . . .   .   . . .   .   . . .   .   . . .   .   . . .


e|--------------------------------------------------|
B|--------------------------------------------------|
G|-------------------------------------------------*|
D|-7---7-------7---7-------7-7-7-7-7-7-7-7-7-7-7-7-*|
A|-7-7-7-7-7-7-7-7-7-7-7-7-7-7-7-7-7-7-7-7-7-7-7-7--|
D|-7-7-7-7-7-7-7-7-7-7-7-7-7-7-7-7-7-7-7-7-7-7-7-7--|
pm   .   . . .   .   . . .

Back to meanest riff on planet (lol), verse, chorus and so on.. All riffs are here.
This is, IMO, the best song on the new record. Thanks.
Tap to rate this tab
# A B C D E F G H I J K L M N O P Q R S T U V W X Y Z