Song name
# A B C D E F G H I J K L M N O P Q R S T U V W X Y Z

Rammstein - Waidmanns Heil tab

-------------------------------------------------------------------------------
			     Waidmanns heil - Rammstein
-------------------------------------------------------------------------------
Tabbed by: Bob LP


Tuning: Drop D

Main riff: X2
e|----------------------------------------|--------------------------------------|
B|----------------------------------------|--------------------------------------|
G|----------------------------------------|--------------------------------------|
D|-0---------1-0-------0----------1-0-3-5-|-0--------1-0--------0--------1-0-5-3-|
A|-0---------1-0-------0----------1-0-3-5-|-0--------1-0--------0--------1-0-5-3-|
D|-0--000000-1-0--0000-0--000000--1-0-3-5-|-0-000000-1-0-0000---0-000000-1-0-5-3-|
      ......      ....    ......              ......     ....     ......
 
Verse: Repeat, phaser/flanger effect
e|---------------------------------------------------------------------------|
B|---------------------------------------------------------------------------|
G|---------------------------------------------------------------------------|
D|---------------------------------------------------------------------------|
A|---------------------------------------------------------------------------|
D|-0-0000-1-0-0000-----------------------------------------------------------|
   . .... . . ....

Repeat main riff, verse, main riff, then...

e|---------------------------------------------------------------------------|
B|---------------------------------------------------------------------------|
G|---------------------------------------------------------------------------|
D|---------------------------------------------------------------------------|
A|--222-22-222-22-222-22-222-222---------------------------------------------|
D|--222-22-222-22-222-22-222-222---------------------------------------------|
    ... .. ... .. ... .. ... ...

Repeat main riff.

End: 
e|---------------------------------------------------------------------------|
B|---------------------------------------------------------------------------|
G|---------------------------------------------------------------------------|
D|-1-0-5-3-------------------------------------------------------------------|
A|-1-0-5-3-------------------------------------------------------------------|
D|-1-0-5-3-12~---------------------------------------------------------------|

.= palm mute
~= vibrato
Tap to rate this tab
 
# A B C D E F G H I J K L M N O P Q R S T U V W X Y Z