Song name
# A B C D E F G H I J K L M N O P Q R S T U V W X Y Z

Rammstein - Waidmanns Heil tab

Rammstein - Waidmanns Heil

Tuning: Drop D

Tabbed out from the 30-sec-previews:


Main Riff:
                                                        _
e|-----------------------------------------------|       |
h|-----------------------------------------------|       |
g|-----------------------------------------------|       |
D|-7-0-0-0-0-0-1-0--0-0-0-0-7-0-0-0-0-0-1-0-3-5--|       |
A|-5-0-0-0-0-0-1-0--0-0-0-0-5-0-0-0-0-0-1-0-3-5--|       |
D|-0-0-0-0-0-0-1-0--0-0-0-0-0-0-0-0-0-0-1-0-3-5--|       |
     . . . .        . . . .   . . . . .                  |
                                                         | 2x
e|-----------------------------------------------|       |
h|-----------------------------------------------|       |
g|-----------------------------------------------|       |
D|-7-0-0-0-0-0-1-0--0-0-0-0-7-0-0-0-0-0-1-0-5-3--|       |
A|-5-0-0-0-0-0-1-0--0-0-0-0-5-0-0-0-0-0-1-0-5-3--|       |
D|-0-0-0-0-0-0-1-0--0-0-0-0-0-0-0-0-0-0-1-0-5-3--|       |
     . . . .        . . . .   . . . . .                 _|


Tap to rate this tab
 
# A B C D E F G H I J K L M N O P Q R S T U V W X Y Z