Song name
# A B C D E F G H I J K L M N O P Q R S T U V W X Y Z

Rammstein - Mehr tab

Rammstein
"MEHR"
Liebe ist für alle da (2009)
Tuning: Drop D
[E-B-G-D-A-D]



INTRO & CHORUS

Both Guitars
E||------------------------------|-------------------------------|
B||------------------------------|-------------------------------|
G||*-----------------------------|-------------------------------|
D||*-6----------6----------6--7--|--6----------6----------6------|
A||--6----------6----------6--7--|--6----------6----------6------|
D||--6--0-0-0-0-6--0-0-0-0-6--7--|--6--0-0-0-0-6--0-0-0-0-6--0-0-|
PM      . . . .    . . . .             . . . .    . . . .    . .

|------------------------------|--------------------------------||
|------------------------------|--------------------------------||
|------------------------------|-------------------------------*||
|--6----------6----------6--7--|--6----------6-----------------*||
|--6----------6----------6--7--|--6----------6------------------||
|--6--0-0-0-0-6--0-0-0-0-6--7--|--6--0-0-0-0-6--0-0-0-0-0-0-0-0-||
PM    . . . .    . . . .             . . . .    . . . . . . . .




CHORUS VARIATION

Guitar I
(tremolo picking)
E||------------------------------|-------------------------------|
B||------------------------------|-------------------------------|
G||--14--------------------------|--13---------------------------|
D||--X---------------------------|--x----------------------------|
A||--12--------------------------|--11---------------------------|
D||------------------------------|-------------------------------|

|------------------------------|--------------------------------||
|------------------------------|--------------------------------||
|--14--------------------------|--17----------------------------||
|--X---------------------------|--x-----------------------------||
|--12--------------------------|--15----------------------------||
|------------------------------|--------------------------------||


Guitar II
E||------------------------------|-------------------------------|
B||------------------------------|-------------------------------|
G||------------------------------|-------------------------------|
D||--6----------6----------6--7--|--6----------6----------6------|
A||--6----------6----------6--7--|--6----------6----------6------|
D||--6--0-0-0-0-6--0-0-0-0-6--7--|--6--0-0-0-0-6--0-0-0-0-6--0-0-|
PM      . . . .    . . . .             . . . .    . . . .    . .

|------------------------------|--------------------------------||
|------------------------------|--------------------------------||
|------------------------------|--------------------------------||
|--6----------6----------6--7--|--6----------6------------------||
|--6----------6----------6--7--|--6----------6------------------||
|--6--0-0-0-0-6--0-0-0-0-6--7--|--6--0-0-0-0-6--0-0-0-0-0-0-0-0-||
PM    . . . .    . . . .             . . . .    . . . . . . . .


Guitar I
E||------------------------------|-------------------------------|
B||------------------------------|-------------------------------|
G||--14--------------------------|--13---------------------------|
D||--X---------------------------|--x----------------------------|
A||--12--------------------------|--11---------------------------|
D||------------------------------|-------------------------------|

|--------------------------------|------------------------------||
|--------------------------------|------------------------------||
|--7-----------------------------|--7---------------------------||
|--X-----------------------------|--x---------------------------||
|--5-----------------------------|--5---------------------------||
|--------------------------------|------------------------------||


Guitar II
E||------------------------------|-------------------------------|
B||------------------------------|-------------------------------|
G||------------------------------|-------------------------------|
D||--6----------6----------6--7--|--6----------6----------6------|
A||--6----------6----------6--7--|--6----------6----------6------|
D||--6--0-0-0-0-6--0-0-0-0-6--7--|--6--0-0-0-0-6--0-0-0-0-6--0-0-|
PM      . . . .    . . . .             . . . .    . . . .    . .

|------------------------------|--------------------------------||
|------------------------------|--------------------------------||
|------------------------------|--------------------------------||
|--6----------6----------6--7--|--6----------6------------------||
|--6----------6----------6--7--|--6----------6------------------||
|--6--0-0-0-0-6--0-0-0-0-6--7--|--6--0-0-0-0-6--0-0-0-0-0-0-0-0-||
PM    . . . .    . . . .             . . . .    . . . . . . . .




BRIDGE: (bin nie zufrieden, es gibt kein ziel...)

Guitar I
E||-------------------|-------------------|-------------------|---------------------------|
B||-------9-----------|-------------------|-------------------|---------------------------|
G||----8--------------|-------------------|-------------------|---------------------------|
D||-6-----------------|-------------------|-------------------|---------------------------|
A||-------------------|-------------------|-------------------|---------------------------|
D||-------------------|-------------------|-------------------|---------------------------|


Guitar II
E||-------------------|-------------------|-------------------|--------------------------||
B||-------------------|-------------------|-------------------|--------------------------||
G||-------------------|-------------------|-------------------|--------------------------||
D||-6--6--6--6--6-6-6-|-6--6--6--6--6-6-6-|-6--6--6--6--6-6-6-|-11--11--11--11--11-11-11-||
A||-6--6--6--6--6-6-6-|-6--6--6--6--6-6-6-|-6--6--6--6--6-6-6-|-11--11--11--11--11-11-11-||
D||-6--6--6--6--6-6-6-|-6--6--6--6--6-6-6-|-6--6--6--6--6-6-6-|-11--11--11--11--11-11-11-||


Guitar I
|-------------------|--------------------------|-------------------|--------------------|
|-------9-----------|--------------------------|-------------------|--------------------|
|----8--------------|--------------------------|-------------------|--------------------|
|-6-----------------|--------------------------|-------------------|--------------------|
|-------------------|--------------------------|-------------------|--------------------|
|-------------------|--------------------------|-------------------|--------------------|


Guitar II
|-------------------|--------------------------|-------------------|-------------------||
|-------------------|--------------------------|-------------------|-------------------||
|-------------------|--------------------------|-------------------|-------------------||
|-3--3--3--3--3-3-3-|-11--11--11--11--11-11-11-|-6--6--6--6--6-6-6-|-6--6--6--6--6-6-6-||
|-3--3--3--3--3-3-3-|-11--11--11--11--11-11-11-|-6--6--6--6--6-6-6-|-6--6--6--6--6-6-6-||
|-3--3--3--3--3-3-3-|-11--11--11--11--11-11-11-|-6--6--6--6--6-6-6-|-6--6--6--6--6-6-6-||


Guitar I
E||-------------------|-------------------|-------------------|---------------------------|
B||-------9----(9)----|-------9----(9)----|-------9----(9)----|-------9----(9)------------|
G||----8-----8----(8)-|----8-----8----(8)-|----8-----8----(8)-|----8-----8----(8)---------|
D||-6-----------------|-6-----------------|-6-----------------|-6-------------------------|
A||-------------------|-------------------|-------------------|---------------------------|
D||-------------------|-------------------|-------------------|---------------------------|


Guitar II
E||-------------------|-------------------|-------------------|--------------------------||
B||-------------------|-------------------|-------------------|--------------------------||
G||-------------------|-------------------|-------------------|--------------------------||
D||-6--6--6--6--6-6-6-|-6--6--6--6--6-6-6-|-6--6--6--6--6-6-6-|-11--11--11--11--11-11-11-||
A||-6--6--6--6--6-6-6-|-6--6--6--6--6-6-6-|-6--6--6--6--6-6-6-|-11--11--11--11--11-11-11-||
D||-6--6--6--6--6-6-6-|-6--6--6--6--6-6-6-|-6--6--6--6--6-6-6-|-11--11--11--11--11-11-11-||


Guitar I
|-------------------|--------------------------|-------------------|--------------------|
|-------9----(9)----|-------9----(9)-----------|-------9----(9)----|-------9----(9)-----|
|----8-----8----(8)-|----8-----8----(8)--------|----8-----8----(8)-|----8-----8----(8)--|
|-6-----------------|-6------------------------|-6-----------------|-6------------------|
|-------------------|--------------------------|-------------------|--------------------|
|-------------------|--------------------------|-------------------|--------------------|


Guitar II
|-------------------|--------------------------|-------------------|-------------------||
|-------------------|--------------------------|-------------------|-------------------||
|-------------------|--------------------------|-------------------|-------------------||
|-3--3--3--3--3-3-3-|-11--11--11--11--11-11-11-|-6--6--6--6--6-6-6-|-6--6--6--6--6-6-6-||
|-3--3--3--3--3-3-3-|-11--11--11--11--11-11-11-|-6--6--6--6--6-6-6-|-6--6--6--6--6-6-6-||
|-3--3--3--3--3-3-3-|-11--11--11--11--11-11-11-|-6--6--6--6--6-6-6-|-6--6--6--6--6-6-6-||


Both Guitars
E||-------|-------|-------|--------|-------|--------|-------|-------||
B||-------|-------|-------|--------|-------|--------|-------|-------||
G||*------|-------|-------|--------|-------|--------|-------|------*||
D||*-6----|--6----|--6----|--11----|--3----|--11----|--6----|--6---*||
A||--6----|--6----|--6----|--11----|--3----|--11----|--6----|--6----||
D||--6----|--6----|--6----|--11----|--3----|--11----|--6----|--6----||


LAST CHORUS

Both Guitars
E||------------------------------|-------------------------------|
B||------------------------------|-------------------------------|
G||*-----------------------------|-------------------------------|
D||*-6----------6----------6--7--|--6----------6----------6------|
A||--6----------6----------6--7--|--6----------6----------6------|
D||--6--0-0-0-0-6--0-0-0-0-6--7--|--6--0-0-0-0-6--0-0-0-0-6--0-0-|
PM      . . . .    . . . .             . . . .    . . . .    . .

|------------------------------|--------------------------------||
|------------------------------|--------------------------------||
|------------------------------|-------------------------------*||
|--6----------6----------6--7--|--6----------6-----------------*||
|--6----------6----------6--7--|--6----------6------------------||
|--6--0-0-0-0-6--0-0-0-0-6--7--|--6--0-0-0-0-6--0-0-0-0-0-0-0-0-||
PM    . . . .    . . . .             . . . .    . . . . . . . .

End
Tap to rate this tab
 
# A B C D E F G H I J K L M N O P Q R S T U V W X Y Z