Song name
# A B C D E F G H I J K L M N O P Q R S T U V W X Y Z

Rammstein - Fruhling In Paris tab

                                      Frühling in Paris

guess it would be easier if you tune the whole guitar down, but I did in drop D.

Intro:
e|----------------------------------|
B|----------------------------------|
G|------2---------------------------| x4
D|---------4------------------------|
A|------------4---------------------|
D|---4------------------------------|

e|----------------------------------|
B|----------------------------------|
G|------2---------------------------| x2
D|---------4------------------------|
A|------------5---------------------|
D|---0------------------------------|

e|----------------------------------|
B|----------------------------------|
G|------2---------------------------| x2
D|---------4------------------------|
A|------------4---------------------|
D|---4------------------------------|

Play this 4 times, then:

e|----------------------------------|
B|------5---------------------------|
G|---------6------------------------| x2
D|------------6---------------------|
A|----------------------------------|
D|---6------------------------------|

e|----------------------------------|
B|------3---------------------------|
G|---------4------------------------| x2
D|------------4---------------------|
A|----------------------------------|
D|---4------------------------------|

This 2 chords 3times, then:

e|----------------------------------|
B|----------------------------------|
G|-------1--------------------------| x4
D|----------2-----------------------|
A|-------------2--------------------|
D|---2------------------------------|

We are now at 0:45, the chorus:

e|----------------------------------|
B|----------------------------------|
G|------7---------------------------| x4
D|---------8------------------------|
A|------------8---------------------|
D|---7------------------------------|

e|----------------------------------|
B|----------------------------------|
G|------2---------------------------| x4
D|---------4------------------------|
A|------------4---------------------|
D|---4------------------------------|

2 times, too then:

e|----------------------------------|
B|----------------------------------|
G|-------1--------------------------| x4
D|----------2-----------------------|
A|-------------2--------------------|
D|---2------------------------------|

e|----------------------------------|
B|----------------------------------|
G|------2---------------------------| x2
D|---------4------------------------|
A|------------5---------------------|
D|---0------------------------------|

drumming starts, go play intro and the rest.
now we kick the metalpedal(1:59):

e|-----------------------------------------|
B|-----------------------------------------|
G|-----------------------------------------| x2
D|--77777777777777774444444444444444-------|
A|--77777777777777774444444444444444-------|
D|--77777777777777774444444444444444-------|


e|-----------------------------------------|
B|-----------------------------------------|
G|-----------------------------------------| x2
D|--22222222222222220000000000000000-------|
A|--22222222222222220000000000000000-------|
D|--22222222222222220000000000000000-------|


lyrics:

Im Lichtkleid kam sie auf mich zu
ich weiß es noch wie heut':
Ich war so jung,
hab' mich geniert
doch hab' es nie bereut.

Sie rief mir Worte ins Gesicht,
die Zunge lustgestreut;
verstand nur ihre Sprache nicht;
ich hab' es nicht bereut.

Oh non rien de rien
Oh non je ne regrète rien

Wenn ich ihre Haut verließ -
der Frühling blutet in Paris.

Ich kannte meinen Körper nicht,
den Anblick so gescheut;
sie hat ihn mir bei Licht gezeigt
ich hab es nie bereut

Die Lippen oft verkauft, so weich
und ewig sie berühr'n;
wenn ich ihren Mund verließ
dann fing ich an zu frier'n.

Sie rief mir Worte ins Gesicht,
die Zunge lustgestreut;
verstand nur ihre Sprache nicht;
ich hab' es nicht bereut.

Oh non rien de rien
Oh non je ne regrète rien

Wenn ich ihre Haut verließ -
der Frühling blutet in Paris.

Ein Flüstern fiel mir in den Schoß
und führte feinen Klang;
hat viel geredet - nichts gesagt
und fühlte sich gut an.

Sie rief mir Worte ins Gesicht
und hat sich tief verbeugt;
verstand nur ihre Sprache nicht;
ich hab' es nicht bereut.

Oh non rien de rien
Oh non je ne regrète rien

Wenn ich ihre Haut verließ -
der Frühling blutet in Paris.

In Paris

Wenn ich ihre Haut verließ -
der Frühling blutet in Paris.

In Paris

Wenn ich ihre Haut verließ -
der Frühling blutet in Paris.

Tap to rate this tab
# A B C D E F G H I J K L M N O P Q R S T U V W X Y Z