Song name
# A B C D E F G H I J K L M N O P Q R S T U V W X Y Z

Rammstein - Wiener Blut tab

Tabbed by: CarverCZ

Band: Rammstein
Album: Liebe ist fuer alle da
Song: Wiener Blut

Drop D tuning (DADGBE)

I am the first to tab this song, but it is 100% accurate.
Thanks for using my tab:)

Intro: 
play 3x
|------------------------------------------------|
|------------------------------------------------|
|------------------------------------------------|
|------------------------------------------------|
|------------------------------------------------|
|3h2-2--2-3h2-2--2-3h2-3h2-----------------------|


Main Riff:
play 4x
|------------------------------------------------|
|------------------------------------------------|
|------------------------------------------------|
|------------------------------------------------|
|--------------------------------------------3-5-|
|3h2-2--2-3h2-2--2-3h2-3h2-3h2-2--2-3h2-2--2-3-5-|


Verse


Chorus:
play 2x
|----------------------------------------------------------------------|
|----------------------------------------------------------------------|
|----------------------------------------------------------------------|
|--------------------------0----------------------------------3--------|
|--------------------------0----------------------------------3--------|
|3h2-2--2-3h2-2--2-3h2-3h2-0--------3h2-2--2-3h2-2--2-3h2-3h2-3--------|



Main Riff:
play 4x
|------------------------------------------------|
|------------------------------------------------|
|------------------------------------------------|
|------------------------------------------------|
|--------------------------------------------3-5-|
|3h2-2--2-3h2-2--2-3h2-3h2-3h2-2--2-3h2-2--2-3-5-|


Bridge:
play 3x
|------------------------------------------------|
|------------------------------------------------|
|------------------------------------------------|
|------------------------------------------------|
|--------------------------------------------3-5-|
|--------------------------3h2-2--2-3h2-2--2-3-5-|


Interlude:
play 1x
|-------------------------------------------------------------------------|
|-------------------------------------------------------------------------|
|-------------------------------------------------------------------------|
|0---3---2-----0---3---2----------------------0---3---2-----0---3---2-----|
|0---3---2-----0---3---2---2--2--2--2--2--2-2-0---3---2-----0---3---2-----|
|0---3---2-----0---3---2---2--2--2--2--2--2-2-0---3---2-----0---3---2-----|
PM:                        .  .  .  .  .  . .


Main Riff:
play 4x
|------------------------------------------------|
|------------------------------------------------|
|------------------------------------------------|
|------------------------------------------------|
|--------------------------------------------3-5-|
|3h2-2--2-3h2-2--2-3h2-3h2-3h2-2--2-3h2-2--2-3-5-|

Tap to rate this tab
# A B C D E F G H I J K L M N O P Q R S T U V W X Y Z