Song name
# A B C D E F G H I J K L M N O P Q R S T U V W X Y Z

Rammstein - Wiener Blut tab

Rammstein - Wiener Blut

p = pull of
pm...... = palm mute

Intro:
e|----------------------|
B|----------------------|
G|----------------------|
D|----------------------|
A|----------------------|
D|-3p2-22-3p2-22-3p2-3p2|

Main Riff/Chorus:
e|----------------------------------------|
B|----------------------------------------|
G|----------------------------------------|
D|----------------------------------------|
A|----------------------------------------|
D|-3p2-22-3p2-22-3p2-3p2-3p2-22-3p2-22-3-5|

Pre-Chorus
e|-------------------------|
B|-------------------------|
G|-------------------------|
D|-----------------------0-|
A|-----------------------0-|
D|-3p2-22-3p2-22-3p2-3p2-0-|

e|-------------------------|
B|-------------------------|
G|-------------------------|
D|-----------------------3-|
A|-----------------------3-|
D|-3p2-22-3p2-22-3p2-3p2-3-|

Bridge:
e|-------|
B|-------|
G|-------|
D|-0-3-2-|
A|-0-3-2-|
D|-0-3-2-|

Bridge: (Just once)
e|-----------------|
B|-----------------|
G|-----------------|
D|-0-3-2-----------|
A|-0-3-2-2-2-2-2-22|
D|-0-3-2-2-2-2-2-22|
pm       ..........

And the main riff again:D
Great and creapy song by Rammstein
Enjoy it! And hopefully its good:D
Tap to rate this tab
# A B C D E F G H I J K L M N O P Q R S T U V W X Y Z