Song name
# A B C D E F G H I J K L M N O P Q R S T U V W X Y Z

Rammstein - Roter Sand tab

Rammstein - Roter Sand
Standard Tuning

Main Riff: (repeat many times ^^)
|-----------------------|-----------------------|
|-----------------------|-----------------------|
|--------0--------------|-----------3-----------|
|-----------2-----------|--------2--------------|
|-----2-----------------|-----2-----------------|
|--0--------------------|--0--------------------|

2nd part of main riff (just listen when you have to play it):
|-----------------------|-----------------------|
|-----------------------|-----------------------|
|--------0--------------|--------0--------------|
|-----------2-----------|-----------2-----------|
|-----2-----------------|-----0-----------------|
|--3--------------------|--2--------------------|

Chorus:
|-----------------------|-----------------------|-----------------------|-----------------------|
|-----------0-----------|-----------0-----------|-----------1-----------|-----------1-----------|
|--------0--------------|--------0--------------|--------2--------------|--------0--------------|
|-----0-----------------|-----0-----------------|-----2-----------------|-----2-----------------|
|-----------------------|-----------------------|--0--------------------|--3--------------------|
|--3--------------------|--3--------------------|-----------------------|-----------------------|

Bridge:
|-----------------------|-----------2-----------|-----------------------|-----------------------|
|-----------------------|--------3--------------|-----------1-----------|-----------1-----------|
|-----------0-----------|-----2-----------------|--------0--------------|--------0--------------|
|--------2--------------|--0--------------------|-----2-----------------|-----2-----------------|
|-----2-----------------|-----------------------|--3--------------------|--3--------------------|
|--0--------------------|-----------------------|-----------------------|-----------------------|
Tap to rate this tab
# A B C D E F G H I J K L M N O P Q R S T U V W X Y Z