Song name
# A B C D E F G H I J K L M N O P Q R S T U V W X Y Z

Rammstein - Waidmanns Heil tab

-------------------------------------------------------------------------------
			     Waidmanns Heil - Rammstein
-------------------------------------------------------------------------------
Tabbed by: Martin Messner
Email: bigbonsai@hotmail.de

Tuning: Drop D

//////////////////////////////////////////////
//                                          //
//  RATING THIS TAB TAKES ABOUT 5 SECONDS   //
//  AND HELPS ME TO IMPROVE MY WORK         //
//                                          //
//////////////////////////////////////////////

[Intro]

Brass:
e|------------------------------------------5~~--|
B|--------------------7~~------7~~--------7------|
G|------------------7------7-7------7-7-7--------|
D|-------7~~------7------------------------------|
A|---5-5------5-5--------------------------------|
E|-----------------------------------------------|
                           |  
                         other Brass Section
                         restarts her! (canon)
Guitar:
e|----------------------------------------------------|
B|----------------------------------------------------|
G|----------------------------------------------------|
D|----------------------------------------------------|
A|----------------------------------------------------|
E|---------------------------------------------12s0---|


[Chorus] x2

e|---------------------------------------------------------------------|
B|---------------------------------------------------------------------|
G|---------------------------------------------------------------------|
D|--0---------------1---0---------------0---------------1---0---3---5--|
A|--0---------------1---0---------------0---------------1---0---3---5--|
E|--0---0-0-0-0-0-0-1---0---0-0-0-0-0-0-0---0-0-0-0-0-0-1---0---3---5--|
        p.m--------         p.m.-------     p.m.-------


e|---------------------------------------------------------------------|
B|---------------------------------------------------------------------|
G|---------------------------------------------------------------------|
D|--0---------------1---0---------------0---------------1---0---5---3--|
A|--0---------------1---0---------------0---------------1---0---5---3--|
E|--0---0-0-0-0-0-0-1---0---0-0-0-0-0-0-0---0-0-0-0-0-0-1---0---5---3--|
        p.m--------         p.m.-------     p.m.-------

[Verse]


e|---------------------------------------------------------------------------|
B|---------------------------------------------------------------------------|
G|---7---7-7-7-7-7-7-7---7-7-7-7-7-7-7---7-7-7-7-7-7-7---7-7-7-7-7-7-7-------|
D|---------------------------------------------------------------------------|
A|---------------------------------------------------------------------------|
E|---------------------------------------------------------------------------|
soft p.m.-------------------------------------------------------------
     with a nice flanger effect!

[Drum-Part]
"Auf dem Lande - auf dem Meer - Lauert das Verderben ... die Kreatur muss"
==> play nothing



[Chorus]
"....sterben"



[Break-Measure]
e|---------------------------------------------------------------------|
B|---------------------------------------------------------------------|
G|---------------------------------------------------------------------|
D|--0---0-0-0-0-0-1---0------------------------------------------------|
A|--0---0-0-0-0-0-1---0------------------------------------------------|
E|--0---0-0-0-0-0-1---0------------------------------------------------|
strongly P.muted
with flanger



[Drum-Part]
"Auf dem Lande - auf dem Meer - Lauert das Verderben ... die Kreatur muss"
==> play nothing



[Chorus]
"....sterben"

[Solo]

seems like random noise ... sort of that:
e|---------------------------------------------------------------------------|
B|----------------------------------------------------14h15------------------|
G|---s16----16--16--16----------------16-16--16----16-------14~~-------------|
D|-------14-14--16--17--14-16-17p16------14--16------------------------------|
A|---------------------------------------------------------------------------|
E|---------------------------------------------------------------------------|

[Drum-Part]
(longer than usual)
"Sie spuert die Muendungsenergie, Feiner Schweiss tropft auf das Knie 
Auf dem Lande -Auf dem Meer -Lauert das Verderben .... die Kreatur muss

[Chorus]
guitar as usual
now with brass:
e|---------------------------------------------------------------------|
B|------------------------------------------------------------6---5----|
G|---7~~~~~~~~~--5~~--7~~~~~~~~~--5~~--7~~~~~~~~~--5~~--------7---7--7-|
D|-------------------------------------------------------------------7-|
A|-------------------------------------------------------------------5-|
E|---------------------------------------------------------------------|
for the right timing listen to the song carefully

If you love Rammstein as much as i do and like this tab, rate it 5/5 =)
b.t.w. i think Waidmanns Heil and Haifisch are probably the best songs on the new album

Martin Messner
bigbonsai@hotmail.de

Tap to rate this tab
# A B C D E F G H I J K L M N O P Q R S T U V W X Y Z