Song name
# A B C D E F G H I J K L M N O P Q R S T U V W X Y Z

Rammstein - Wiener Blut tab

Song: Wiener Blut
Artist: Rammstein
Album: Liebe Ist Für Alle Da
Tuning: Drop D

Intro
This just repeats and fades out...
E|--------------------------------------------------------------------------| 
B|----5--5-----5--5-----5--5-----5--5-----5--5-----5--5-----5--5-----5--5---|
G|--------------------------------------------------------------------------|
D|-2--------2--------2--------2--------2--------2--------2--------2---------| 
A|--------------------------------------------------------------------------|
D|--------------------------------------------------------------------------|

 Lead String
E|----------------------------------12-16~---------12~---16-12~------10-12--| 
B|--------------------------------------------------------------------------|
G|-------------------------------9------------------------------------------|
D|--------------------------------------------------------------------------| 
A|--------------------------------------------------------------------------|
D|--------------------------------------------------------------------------|
 |
 |Backing Strings
E|--------------------------------------------------------------------------| 
B|--------------------------------------------------------------------------|
G|----------------------------------------------------------~9--------------|
D|-----------------------------------------------------------x--------------| 
A|----------------------------------------------------------~7--------------|
D|--------------------------------------------------------------------------|

E|------10h12-----------------------------| 
B|-12---------12~-------------------------|
G|----------------------------------------|
D|----------------------------------------| 
A|----------------------------------------|
D|----------------------------------------|
 |
 |
E|----------------------------------------| 
B|----------------------------------------|
G|-9~---------11~-------------------------|
D|-9~---------x---------------------------| 
A|-7~---------9-~-------------------------|
D|----------------------------------------|


Verse I

String/Voice
E|----------------------------------------------------------| 
B|----------------------------------------------------------|
G|-9~~~~~---------------------------------------------------|
D|----------------------------------------------------------| 
A|----------------------------------------------------------|
D|----------------------------------------------------------|

Main Strings 4x
E|----------------------------------------------------------| 
B|----------------------------13~------------12~------------|
G|-9~------------11~----------x--------------x--------------|
D|-x-------------x------------10~------------9-~------------| 
A|-7~------------7-~----------------------------------------|
D|----------------------------------------------------------|


End Verse
E|----------------------------------------------------------| 
B|----------------------------------------------------------|
G|----------------------------------------------------------|
D|-2~-------------------------------------------------------| 
A|-2~-------------------------------------------------------|
D|-2~-------------------------------------------------------|



Kick
3x
E|----------------------------------------------------------| 
B|----------------------------------------------------------|
G|----------------------------------------------------------|
D|----------------------------------------------------------| 
A|-3p2--2--2h3p2--2--2h3p2h3p2------------------------------|
D|-3p2--2--2h3p2--2--2h3p2h3p2------------------------------|


“In Der Dunkelheit..”
Guitar I
E|----------------------------------------------------------| 
B|----------------------------------------------------------|
G|----------------------------------------------------------|
D|----------------------------------------------------------| 
A|-3p2--2--2h3p2--2--2h3p2h3p2-3p2--2--2h3p2--2--2h3---5----|
D|-3p2--2--2h3p2--2--2h3p2h3p2-3p2--2--2h3p2--2--2h3---5----|

Guitar II (Just the first time)
E|----------------------------------------------------------| 
B|----------------------------------------------------------|
G|----------------------------------------------------------|
D|----------------------------------------------------------| 
A|-3p2--2--2h3p2--2--2h3p2h3p2-3p2--2--2h3p2--2--2h3p2-5----|
D|-3p2--2--2h3p2--2--2h3p2h3p2-3p2--2--2h3p2--2--2h3p2-5----|



Verse II

Strings
(this was extremely hard to hear, so bear with me)
E|----------------------------------------------------------| 
B|-12~-----------13~----------12~---------------------------|
G|-9-~-----------9-~----------9-~---------------------------|
D|-x-------------x------------x-----------------------------| 
A|-7-~-----------7-~----------7-~---------------------------|
D|--------------------------------------~5------------------|

E|----------------------------8~----------------------------| 
B|-12~-----------11~----------x--------------11~------------|
G|-9-~---------------8~-------8~-------------9-~-----p8~----|
D|-x-------------x------------x--------------x--------------| 
A|-7-~-----------7-~----------7~-------------7-~------------|
D|----------------------------------------------------------|

E|----------------------------------------------------------| 
B|-12~-----------13~----------12~---------------------------|
G|-9-~-----------9-~----------9-~---------------------------|
D|-x-------------x------------x-----------------------------| 
A|-7-~-----------7-~----------7-~---------------------------|
D|--------------------------------------~5------------------|

E|----------------------------8~----------------------------| 
B|-12~-----------11~----------x-----------------------------|
G|-9-~---------------8~-------9~----------------------------|
D|-x-------------x------------x--------------2~-------------| 
A|-7-~-----------7-~----------7-~------------2~-------------|
D|-------------------------------------------2~-------------|


Pre-Chorus 2x
E|----------------------------------------------------------| 
B|----------------------------------------------------------|
G|----------------------------------------------------------|
D|-----------------------------0~---------------------------| 
A|-3p2--2--2h3p2--2--2h3p2h3p2-0~---------------------------|
D|-3p2--2--2h3p2--2--2h3p2h3p2-0~---------------------------|

E|----------------------------------------------------------| 
B|----------------------------------------------------------|
G|----------------------------------------------------------|
D|-----------------------------3~---------------------------| 
A|-3p2--2--2h3p2--2--2h3p2h3p2-3~---------------------------|
D|-3p2--2--2h3p2--2--2h3p2h3p2-3~---------------------------|


Then
“In Der Dunkelheit..”
Both Guitars 4x
E|----------------------------------------------------------| 
B|----------------------------------------------------------|
G|----------------------------------------------------------|
D|----------------------------------------------------------| 
A|-3p2--2--2h3p2--2--2h3p2h3p2-3p2--2--2h3p2--2--2h3---5----|
D|-3p2--2--2h3p2--2--2h3p2h3p2-3p2--2--2h3p2--2--2h3---5----|


Breakdown
3x
E|----------------------------------------------------------| 
B|----------------------------------------------------------|
G|----------------------------------------------------------|
D|----------------------------------------------------------| 
A|-----------------------------3p2--2--2h3p2--2--2h3---5----|
D|-----------------------------3p2--2--2h3p2--2--2h3---5----|


Bridge 4x
Guitars
E|----------------------------------------------------------| 
B|----------------------------------------------------------|
G|----------------------------------------------------------|
D|-0~--------------------------3~---------------------------| 
A|-0~--------------------------3~---------------------------|
D|-0~--------------------------3~---------------------------|
 | 
 |Piano
E|-----------------------------8~---------------------------| 
B|-6~--------------------------x----------------------------|
G|-x---------------------------5~---------------------------|
D|-3~-------------------------------------------------------| 
A|----------------------------------------------------------|
D|----------------------------------------------------------|

E|----------------------------------------------------------| 
B|----------------------------------------------------------|
G|----------------------------------------------------------|
D|-2~-------------------------------------------------------| 
A|-2~-------------------------------------------------------|
D|-2~-------------------------------------------------------|
 |
 |
E|-7~-------------------------------------------------------| 
B|-x--------------------------------------------------------|
G|-4~-------------------------------------------------------|
D|----------------------------------------------------------| 
A|----------------------------------------------------------|
D|----------------------------------------------------------|

After Second Time there's one part for Both Guitars
E|----------------------------------------------------------| 
B|----------------------------------------------------------|
G|----------------------------------------------------------|
D|----------------------------------------------------------| 
A|-----------------------------2----2----2----2----2---22---|
D|-----------------------------2----2----2----2----2---22---|
 PM|                           -    -    -    -    -   --


Right before the last part bend Low D-3 up to Low D-4 and vibrato it.

Last
“In Der Dunkelheit..”
Both Guitars 4x
E|----------------------------------------------------------| 
B|----------------------------------------------------------|
G|----------------------------------------------------------|
D|----------------------------------------------------------| 
A|-3p2--2--2h3p2--2--2h3p2h3p2-3p2--2--2h3p2--2--2h3---5----|
D|-3p2--2--2h3p2--2--2h3p2h3p2-3p2--2--2h3p2--2--2h3---5----|

And yer done.

Go Rammstein.


Tap to rate this tab
 
# A B C D E F G H I J K L M N O P Q R S T U V W X Y Z