Song name
# A B C D E F G H I J K L M N O P Q R S T U V W X Y Z

Rammstein - Halt chords

Main Riff x4:
E|-----------------------------------|
B|-----------------------------------|
G|-----------------------------------|
D|-----------------------------------|
A|--0--000--0--000--0--000--0--0-0-0-|
D|--0--000--0--000--0--000--0--0-0-0-|
    .  ...  .  ...  .  ...     . . .

then
E|-----------|
B|-----------|
G|-----------|
D|--6--5--3--|
A|--6--5--3--|
D|--6--5--3--|


E|-----------------------------------|
B|-----------------------------------|
G|-----------------------------------|
D|-----------------------------------|
A|--0--000--0--000--0--000--0--0-0-0-|
D|--0--000--0--000--0--000--0--0-0-0-|
    .  ...  .  ...  .  ...     . . .

Verse Riff 4x:
E|-----------------------------------|
B|-----------------------------------|
G|-----------------------------------|
D|-------------------------3---------|
A|--5-------5-------5----------------|
D|--0--0-0--0--0-0--0--0-0---0-0-----|
    .  . .  .  . .  .  . .   . .

After 4 times play this 4x:
E|-----------------------------------|
B|-----------------------------------|
G|-----------------------------------|
D|-------------------------3---------|
A|--3-------3-------3----------------|
D|--3--3-3--3--3-3--3--3-3---3-3-----|
    .  . .  .  . .  .  . .   . .

Chorus Riff:
E|--------------------------------------------------|
B|--------------------------------------------------|
G|--7-7-7-7-7-7-7-7-7-7-7-7-5-5-5-5-5-5-5-5-5-5-5-5-|
D|--------------------------------------------------|
A|--5-5-5-5-5-5-5-5-5-5-5-5-3-3-3-3-3-3-3-3-3-3-3-3-|
D|--------------------------------------------------|

E|-------------------------------------------------|
B|-------------------------------------------------|
G|-------------------------------------------------|
D|-3-3-3-3-3-3-3-3-3-3-3-3-5-5-5-5-5-5-5-5-5-5-5-5-|
A|-------------------------------------------------|
D|-3-3-3-3-3-3-3-3-3-3-3-3-5-5-5-5-5-5-5-5-5-5-5-5-|

The end of the second and the last chorus:
E|------------------------------------------------------------|
B|------------------------------------------------------------|
G|------------------------------------------------------------|
D|-8-8-8-8-8-8-8-8-8-8-8-8-10-10-10-10-10-10-10-10-10-10-10-10|
A|-8-8-8-8-8-8-8-8-8-8-8-8-10-10-10-10-10-10-10-10-10-10-10-10|
D|-8-8-8-8-8-8-8-8-8-8-8-8-10-10-10-10-10-10-10-10-10-10-10-10|
                                                       .  .  .

Ending chord:
E|---
B|---
G|---
D|-0-
A|-0-
D|-0-
Tap to rate this tab
 
# A B C D E F G H I J K L M N O P Q R S T U V W X Y Z