Song name
# A B C D E F G H I J K L M N O P Q R S T U V W X Y Z

Rammstein - Nebel tab

Artist: Rammstein
Song: Nebel
Album: Mutter

Standard E (Because Richard plays it on his KH-4 at the mutter tour)

Harmonic 1:

e|---10---|
B|--------|
G|--------|
D|--------|
A|--------|
E|--------|


Harmonic 2:

e|---19-------|
B|-------20---|
G|------------|
D|------------|
A|------------|
E|------------|



Verse:

E|-----------------------------------|
B|-----------------------------------|
G|-----10-------9-------7-------9----|
D|----7---7---7---7---7---7---7---7--| 
A|--0-------0-------0-------0--------|
E|-----------------------------------|


Fill:

E|-----------------------------------|-----------------------------------|
B|-----------------------------------|-----------------------------------|
G|-----10-------9-------7-------9----|------9-------9-------9-------7----|
D|----7---7---7---7---7---7---7---7--|----7---7---7---7---7---7---7---7--|
A|--0-------0-------0-------0--------|--5-------5-------5-------5--------|
E|-----------------------------------|-----------------------------------|

E|----------------------------------|--------------0---------------------|
B|----------------------------------|------3-----------------------------|
G|------11------9-------11------9---|----2---2---2---2-----10-------9----|
D|----9---9---9---9---9---9---9---9-|---------------------7---7---7---7--|
A|--7-------7-----------------------|--3-------3--------0-------0--------|
E|------------------7-------7-------|------------------------------------|


Pre-Chorus:


E|-----------------------------------|
B|-----------------------------------|
G|-----10-------9-------7-------9----|
D|----7---7---7---7---7---7---7---7--| 
A|--8-------8-------5-------5--------|
E|-----------------------------------|

Chorus

E|------------------------------------------------------------------|
B|------------------------------------------------------------------|
G|--9-9-9-9-9-9-9-9-9-9-9-9-9-9-9-9-7-7-7-7-7-7-7-7-7-7-7-7-7-7-7-7-|
D|--7-7-7-7-7-7-7-7-7-7-7-7-7-7-7-7-7-7-7-7-7-7-7-7-7-7-7-7-7-7-7-7-|
A|----------------------------------5-5-5-5-5-5-5-5-5-5-5-5-5-5-5-5-|
E|------------------------------------------------------------------|


E|------------------------------------------------------------------|
B|------------------------------------------------------------------|
G|----------------------------------5-5-5-5-5-5-5-5-9-9-9-9-9-9-9-9-|
D|--2-2-2-2-2-2-2-2-2-2-2-2-2-2-2-2-5-5-5-5-5-5-5-5-7-7-7-7-7-7-7-7-|
A|--2-2-2-2-2-2-2-2-2-2-2-2-2-2-2-2-3-3-3-3-3-3-3-3-----------------|
E|------------------------------------------------------------------|

Harmonic 3:

E|-------|
B|-------|
G|---7---|
D|-------|
A|-------|
E|-------|


Solo

E|-------------------------------------------------------------------------|
B|-------------------------------------------------------------------------|
G|--14---14---14---14---14---14--/16--/17--\9---9---9---9---9---9---9---9--|
D|---x----x----x----x----x----x----x----x---x---x---x---x---x---x---x---x--|
A|--12---12---12---12---12---12--/14--/15--\7---7---7---7---7---7---7---7--|
E|-------------------------------------------------------------------------|

E|-----------------------------------------------------------------|
B|-----------------------------------------------------------------|
G|--9---9---9---9---9---9---9---9---7---7---7---7---7---7---7---7--|
D|--x---x---x---x---x---x---x---x---x---x---x---x---x---x---x---x--|
A|--7---7---7---7---7---7---7---7---5---5---5---5---5---5---5---5--|
E|-----------------------------------------------------------------|
                                                                                               
E|-----------------------------------------------------------------|
B|-----------------------------------------------------------------|
G|--9---9---9---9---9---9---9---9---4---4---4---4---4---4---4---4--|
D|--x---x---x---x---x---x---x---x---x---x---x---x---x---x---x---x--|
A|--7---7---7---7---7---7---7---7---2---2---2---2---2---2---2---2--|
E|-----------------------------------------------------------------|

E|----------------------------------------------------------------------|
B|----------------------------------------------------------------------|
G|---5---5---5---5---5---5---5--/14---14---14---14---14---14---14---14--|
D|---x---x---x---x---x---x---x----x----x----x----x----x----x----x----x--|
A|---3---3---3---3---3---3---3--/12---12---12---12---12---12---12---12--|
E|----------------------------------------------------------------------|

Rhythm -> Chorus


Harmonic 1  x1
Harmonic 2  x1
Verse       x2
Fill        x1
Verse       x7
Pre-Chorus  x1
Chorus      x2 (let the last note fade out)
Harmonic 3  x1
Chorus      x2
Solo        x2 (let the last note fade out)

have fun ;)
Tap to rate this tab
 
# A B C D E F G H I J K L M N O P Q R S T U V W X Y Z