Song name
# A B C D E F G H I J K L M N O P Q R S T U V W X Y Z

Rammstein - Los tab

----------------------------------------------------------------
Hey this is the Volkerball edition of the tab so Live in Nimes
please send hate mail or kudoos on how the tab is
thelampshadeparade@gmail.com
Thanks!
----------------------------------------------------------------
Guitar 1 - Richard Z. Krupse ( Drop C Acoustic Guitar )
Guitar 2 - Paul H. Landers   ( Drop C Acoustic Guitar )

Intro x2
(Guitar 1)

E--x--x--x--x--x--x--x--x--x--x--x--x--x|
B--x--x--x--x--x--x--x--x--x--x--x--x--x|
G--x--x--x--x--x--x--x--x--x--x--x--x--7|
D--5--1--3--5--1--3--5--1--3--5--1--3--7|
A--5--1--3--5--1--3--5--1--3--5--1--3--7|
C--5--1--3--5--1--3--5--1--3--5--1--3--x|


Verses ( verses played throughout the song until solo )
(Guitar 1 & 2)

E--x--x--x--x--x--x--x--x--x--x--x--x--x|
B--x--x--x--x--x--x--x--x--x--x--x--x--x|
G--x--x--x--x--x--x--x--x--x--x--x--x--7|
D--5--1--3--5--1--3--5--1--3--5--1--3--7|
A--5--1--3--5--1--3--5--1--3--5--1--3--7|
C--5--1--3--5--1--3--5--1--3--5--1--3--x|


Solo happens twice, first time is (guitar 2)
second solo is (guitar 1 )

E--------------------------|
B--------------------------|
G----5--3------------------|  played numerous times
D---------5---5---5--------|
A--5--------3--3-----5---3-|
C--------------------------|

Solo Keeps going while Till is playing harmonica

Interlude

E--x--x--x--x--x--x--x--x--x--|
B--x--x--x--x--x--x--x--x--x--|
G--x--x--x--x--x--x--x--x--x--|
D--5--1--3--5--1--3--5--1--3--|
A--5--1--3--5--1--3--5--1--3--|
C--5--1--3--5--1--3--5--1--3--|


Verse

E--x--x--x--x--x--x--x--x--x--x--x--x--x|
B--x--x--x--x--x--x--x--x--x--x--x--x--x|
G--x--x--x--x--x--x--x--x--x--x--x--x--7|
D--5--1--3--5--1--3--5--1--3--5--1--3--7|
A--5--1--3--5--1--3--5--1--3--5--1--3--7|
C--5--1--3--5--1--3--5--1--3--5--1--3--x|

Solo

E--------------------------|
B--------------------------|
G----5--3------------------|  played numerous times
D---------5---5---5--------|
A--5--------3--3-----5---3-|
C--------------------------|


Solo Keeps going while Till is playing harmonica again, as that happens guitar 2 
to electric guitar

Keyboard solo with guitar then

E--x--x--x--x--x--x--x--x--x--|
B--x--x--x--x--x--x--x--x--x--|
G--x--x--x--x--x--x--x--x--x--|
D--5--1--3--5--1--3--5--1--3--|
A--5--1--3--5--1--3--5--1--3--|
C--5--1--3--5--1--3--5--1--3--|

Then is palm muted till solo is over


Verse after keyboard solo
Guitar 1 -( Drop C Electric Guitar w/ distortion )
Guitar 2 -( Drop C Electric Guitar w/ distortion )

E--x--x--x--x--x--x--x--x--x--x--x--x--x|
B--x--x--x--x--x--x--x--x--x--x--x--x--x|
G--x--x--x--x--x--x--x--x--x--x--x--x--7|
D--5--1--3--5--1--3--5--1--3--5--1--3--7|
A--5--1--3--5--1--3--5--1--3--5--1--3--7|
C--5--1--3--5--1--3--5--1--3--5--1--3--x|



Thanks
Tap to rate this tab
 
# A B C D E F G H I J K L M N O P Q R S T U V W X Y Z