Song name
# A B C D E F G H I J K L M N O P Q R S T U V W X Y Z

Rammstein - Adios tab

-------------------------------------------------------------------------------
			   RAMMSTEIN - Adios 
-------------------------------------------------------------------------------
Tabbed by:QAAS
Email:hangar666@hotmail.it

Tuning: drop D



 intro - clean 
e|--------------------------|-------------------|
b|--------------------------|-------------------|
G|-------10/12----7------5--|-------10/12----7--|
D|--8----10/12----7------5--|--8----10/12----7--|
A|--8----8-/10----5------3--|--8----8-/10----5--|
D|--8-----------------------|--8----------------|


 main riff
e|----------------------------------------------|
b|----------------------------------------------|
G|----------------------------------------------|x4
D|-----10-7-------------------------------------|
A|--8--8--5----------3h5--------3h5-------------|
D|--8---------000000-----000000-----0000000000--|
p.m.          ......     ......     ..........

 verse
e|-----------|
b|-----------|
G|-----------|
D|-----10-7--|x4
A|--8--8--5--|
D|--8--------|

 main riff
e|----------------------------------------------|
b|----------------------------------------------|
G|----------------------------------------------|x2
D|-----10-7-------------------------------------|
A|--8--8--5----------3h5--------3h5-------------|
D|--8---------000000-----000000-----0000000000--|
p.m.          ......     ......     ..........

 verse - last time two bit on last chord
e|-----------|
b|-----------|
G|-----------|
D|-----10-7--|x4
A|--8--8--5--|
D|--8--------|

 main riff
e|----------------------------------------------|
b|----------------------------------------------|
G|----------------------------------------------|x4
D|-----10-7-------------------------------------|
A|--8--8--5----------3h5--------3h5-------------|
D|--8---------000000-----000000-----0000000000--|
p.m.          ......     ......     ..........

 fill
e|---------|
b|---------|
G|---------|
D|-----10--|
A|--8--8---|
D|--8------|

 intro - clean - let ring last chord in the second time
e|--------------------------|-------------------|
b|--------------------------|-------------------|
G|-------10/12----7------5--|-------10/12----7--|
D|--8----10/12----7------5--|--8----10/12----7--|
A|--8----8-/10----5------3--|--8----8-/10----5--|
D|--8-----------------------|--8----------------|

 intro - distorsion
e|--------------------------|
b|--------------------------|
G|-------10/12----7------5--|
D|--8----10/12----7------5--|x2
A|--8----8-/10----5------3--|
D|--8-----------------------|

 rythm for solo
e|-------------------------------------------------------------|
b|-------------------------------------------------------------|
G|-------------------------------------------------------------|
D|--0-------------------------0--------------------------------|
A|--0-------------------------0--------------------------------|
D|--0-------------------------0--------------------------------|
 solo
e|-------------------------------------------------------------|
b|-------------------------------------------------------------|
G|--8h1010-8h1010-1010b-8-7---8h1010-8h1010-8h101010b10-8-7----|
D|--------------------------7-------------------------------7--|
A|-------------------------------------------------------------|
D|-------------------------------------------------------------|
 rithm for solo
e|-------------------------------------------------------------|
b|-------------------------------------------------------------|
G|-------------------------------------------------------------|
D|--0--------------0--------------0------0------0-0-0-0-0---10-|
A|--0--------------0--------------0------0------0-0-0-0-0-8-8--|
D|--0--------------0--------------0------0------0-0-0-0-0-8----|
p.m.                                            . . . . .
 solo
e|-------------------------------------------------------------|
b|--8h1010-1010b10-8h1010-1010b10-8h1010-8h1010-101010b10-8-7--|
G|------------------------------------------------------------7|
D|-------------------------------------------------------------|
A|-------------------------------------------------------------|
D|-------------------------------------------------------------|
 rithm for solo 
e|---------------------------------------------------|
b|---------------------------------------------------|
G|---------------------------------------------------|
D|-----------------------------------------------10--|x4
A|--3h5---------3h5-----------3h5--------------8-8---|
D|------000000--------000000--------0000000000-8-----|
p.m.    ......        ......        ..........
 solo
e|-------------------------------------------------------------|
b|-------------------------------------------------------------|
G|--8h1010-8h1010-1010b-8-7---8h1010-8h1010-8h101010b10-8-7----|x4
D|--------------------------7-------------------------------7--|
A|-------------------------------------------------------------|
D|-------------------------------------------------------------|
 
 intro - distorsion - last time let ring every chords

e|--repeat 4 times----------|-------------------|
b|--------------------------|-------------------|
G|-------10/12----7------5--|-------10/12----7--|
D|--8----10/12----7------5--|--8----10/12----7--|
A|--8----8-/10----5------3--|--8----8-/10----5--|
D|--8-----------------------|--8----------------|








| /  slide up
| \  slide down
| h  hammer-on
| p  pull-off
| ~  vibrato
| +  harmonic
| x  Mute note
===============================================================================
Tap to rate this tab
 
# A B C D E F G H I J K L M N O P Q R S T U V W X Y Z