Song name
# A B C D E F G H I J K L M N O P Q R S T U V W X Y Z

Rammstein - Mein Herz Brennt tab

-------------------------------------------------------------------------------
			   RAMMSTEIN - Mein Herz Brennt
-------------------------------------------------------------------------------
Tabbed by:QAAS
Email:hangar666@hotmail.it

Tuning:b standard 


 
   main riff
b |-------------|--------------------------------|-------------------|
F#|-------------|--------repeat 4 times----------|-------------------|
D |-------------|--------------------------------|--------------3-4--|x2
A |--3-3-3-3-3--|--3-3-3-3-3--3-3-3-3-3-3-3-3-3--|--3-3-3-3-x-x-3-4--|
E |--3-3-3-3-3--|--3-3-3-3-3--3-3-3-3-3-3-3-3-3--|--3-3-3-3-x-x-1-2--|
B |--1-1-1-1-1--|--1-1-1-1-1--1-1-1-1-1-1-1-1-1--|--1-1-1-1-x-x------|

  verse - clean - listen for timing
b |-------------|
F#|-------------|
D |-------------|
A |-------------|
E |--3--3--3-5--|
B |--1--1--1-2--| 
  
  chorus
b |-------------------------|--------------------|
F#|--6----------------------|--6-----------------|
D |--5----3----6----5---55--|--5----3----6----5--|
A |--3----3----6----5---55--|--3----3----6----5--|
E |-------1----4----3---33--|-------1----4----3--|
B |-------------------------|--------------------|
p.m.                    ..

   main riff
b |-------------|--------------------------------|-------------------|
F#|-------------|--------repeat 4 times----------|-------------------|
D |-------------|--------------------------------|--------------3-4--|x1
A |--3-3-3-3-3--|--3-3-3-3-3--3-3-3-3-3-3-3-3-3--|--3-3-3-3-x-x-3-4--|
E |--3-3-3-3-3--|--3-3-3-3-3--3-3-3-3-3-3-3-3-3--|--3-3-3-3-x-x-1-2--|
B |--1-1-1-1-1--|--1-1-1-1-1--1-1-1-1-1-1-1-1-1--|--1-1-1-1-x-x------|

  verse - clean - listen for timing
b |-------------|
F#|-------------|
D |-------------|
A |-------------|
E |--3--3--3-5--|
B |--1--1--1-2--| 
   
  chorus
b |-------------------------|--------------------|
F#|--6----------------------|--6-----------------|
D |--5----3----6----5---55--|--5----3----6----5--|
A |--3----3----6----5---55--|--3----3----6----5--|
E |-------1----4----3---33--|-------1----4----3--|
B |-------------------------|--------------------|
p.m.                    ..

main riff - let ring last chord
b |-------------|--------------------------------|----------------------|
F#|-------------|--------repeat 4 times----------|--------------10-9----|
D |-------------|--------------------------------|--------------10-9-7--|x2
A |--3-3-3-3-3--|--3-3-3-3-3--3-3-3-3-3-3-3-3-3--|--3-3-3-3-x-x-8--7-7--|
E |--3-3-3-3-3--|--3-3-3-3-3--3-3-3-3-3-3-3-3-3--|--3-3-3-3-x-x------5--|
B |--1-1-1-1-1--|--1-1-1-1-1--1-1-1-1-1-1-1-1-1--|--1-1-1-1-x-x---------|

   solo - first time
b |-------------------------------|--------------------------|
F#|-------------------------------|--6-6-6-6-6-8-8--8-6------|
D |--2-2-2-2/3-3-3/5-5-5/7-7-7-7--|---------------------8-7--|
A |-------------------------------|--------------------------|
E |--repeat 3 times---------------|--------------------------|
B |-------------------------------|--------------------------|

   solo - second time
b |-------------------------------|--------------------------|       |
F#|-------------------------------|--6-6-6-6-6-8-8--8-6------|       |
D |--2-2-2-2/3-3-3/5-5-5/7-7-7-7--|---------------------8-7--|       |
A |-------------------------------|--------------------------|       |
E |--repeat 3 times---------------|--------------------------|       |
B |-------------------------------|--------------------------|       |
   rithm guitar                                                      |
b |------------------------------------------------------------------|-
F#|------------------------------------------------------------------|-
D |----------------------------------5-5-5-5-5--5-5-5-5-5--5-5-5-5-5-|-
A |--5-5-5-5-5--5-5-5-5-5--5-5-5-5-5-5-5-5-5-5--5-5-5-5-5--5-5-5-5-5-|-
E |--5-5-5-5-5--5-5-5-5-5--5-5-5-5-5-3-3-3-3-3--3-3-3-3-3--3-3-3-3-3-|-
B |--3-3-3-3-3--3-3-3-3-3--3-3-3-3-3---------------------------------|-
                                                                     |
b -|-----------------------------------------------------------------|
F#-|---------------------------------1010101010-1010101010-10101010--|
D -|-8-8-8-8-8--8-8-8-8-8--8-8-8-8-8-1010101010-1010101010-10101010--|
A -|-8-8-8-8-8--8-8-8-8-8--8-8-8-8-8-8-8-8-8-8--8-8-8-8-8--8-8-8-8---|
E -|-6-6-6-6-6--6-6-6-6-6--6-6-6-6-6---------------------------------|
B -|-----------------------------------------------------------------|

   solo - second time
b |-------------------------------|--------------------------|       |
F#|-------------------------------|--6-6-6-6-6-8-8--8-6------|       |
D |--2-2-2-2/3-3-3/5-5-5/7-7-7-7--|---------------------8-7--|       |
A |-------------------------------|--------------------------|       |
E |--repeat 3 times---------------|--------------------------|       |
B |-------------------------------|--------------------------|       |
   rithm guitar                                                      |
b |------------------------------------------------------------------|-
F#|------------------------------------------------------------------|-
D |----------------------------------5-5-5-5-5--5-5-5-5-5--5-5-5-5-5-|-
A |--5-5-5-5-5--5-5-5-5-5--5-5-5-5-5-5-5-5-5-5--5-5-5-5-5--5-5-5-5-5-|-
E |--5-5-5-5-5--5-5-5-5-5--5-5-5-5-5-3-3-3-3-3--3-3-3-3-3--3-3-3-3-3-|-
B |--3-3-3-3-3--3-3-3-3-3--3-3-3-3-3---------------------------------|-
                                                                     |
b -|-----------------------------------------------------------------|
F#-|---------------------------------1010101010----------------------|
D -|-8-8-8-8-8--8-8-8-8-8--8-8-8-8-8-1010101010----------------------|
A -|-8-8-8-8-8--8-8-8-8-8--8-8-8-8-8-8-8-8-8-8-----------------------|
E -|-6-6-6-6-6--6-6-6-6-6--6-6-6-6-6---------------------------------|
B -|-----------------------------------------------------------------|

   main riff
b |-------------|--------------------------------|-------------------|
F#|-------------|--------repeat 4 times----------|-------------------|
D |-------------|--------------------------------|--------------4-3--|x2
A |--3-3-3-3-3--|--3-3-3-3-3--3-3-3-3-3-3-3-3-3--|--3-3-3-3-x-x-4-3--|
E |--3-3-3-3-3--|--3-3-3-3-3--3-3-3-3-3-3-3-3-3--|--3-3-3-3-x-x-2-1--|
B |--1-1-1-1-1--|--1-1-1-1-1--1-1-1-1-1-1-1-1-1--|--1-1-1-1-x-x------|



 /  slide up
| \  slide down
| h  hammer-on
| p  pull-off
| ~  vibrato
| +  harmonic
| x  Mute note
===============================================================================
Tap to rate this tab
# A B C D E F G H I J K L M N O P Q R S T U V W X Y Z