Song name
# A B C D E F G H I J K L M N O P Q R S T U V W X Y Z

Rammstein - Spiel Mit Mir tab

Help us improve GuitareTab! Take a short survey!
Band:     Rammstein
Album:    Sehnsucht
Song:     Spiel Mir Mit
Tabber:   Slashdotcom//

Down Tune In The C Octave

Synth for Git
|-----------------------------|
|-----------------------------|
|-------16-15--------16-15-14-|
|-14-14--------14-14----------|
|-----------------------------|
|-----------------------------|

Riff1
|-----------------------------|
|-----------------------------|
|-----------------------------|
|-----2-----------------------|
|-222-2-222-222--222-22-33-33-|4X
|-000---000-000--000-00-11-11-|
  ...   ... ...  ... .. .. ..

Riff 2
|-------------------------------------------------------|
|-------------------------------------------------------|
|-------------------------------------------------------|
|-----7------------------------------7------------------|
|-777-7-777-777--777-778-885-55--777-7-777-777--777-778-|1X
|-555---555-555--555-556-663-33--555---555-555--555-556-|
  ...   ... ...  ... ... ... ..  ...   ... ...  ... ...

Riff 1
|-----------------------------|
|-----------------------------|
|-----------------------------|
|-----2-----------------------|
|-222-2-222-222--222-22-33-33-|4X
|-000---000-000--000-00-11-11-|
  ...   ... ...  ... .. .. ..

Riff 2
|-------------------------------------------------------|
|-------------------------------------------------------|
|-------------------------------------------------------|
|-----7------------------------------7------------------|
|-777-7-777-777--777-778-885-55--777-7-777-777--777-778-|1X
|-555---555-555--555-556-663-33--555---555-555--555-556-|
  ...   ... ...  ... ... ... ..  ...   ... ...  ... ...

Riff 3                              Tag Riff
|-------------------------------|  |-------------------------------|
|-------------------------------|  |-------------------------------|
|-------------------------------|3x|-------------------------------|
|-444---------------------------|  |-444-----------------22222-3---|
|-222--222-222--777-77-3-332-22-|  |-222--222-222-777-77-00000-3-2-|
|-...--000-000--555-55-1-110-00-|  |-...--000-000-555-55-------1-0-|
       ... ...  ... .. . ... ..           ... ... ... ..         .

Solo
|-----------------|
|-12p-12p-12p-12p-|a few times with panner effect
|-----------------|
|-----------------|
|-----------------|
|-----------------|

Riff 1
|-----------------------------|
|-----------------------------|
|-----------------------------|
|-----2-----------------------|
|-222-2-222-222--222-22-33-33-|4X
|-000---000-000--000-00-11-11-|
  ...   ... ...  ... .. .. ..

Spiel,,,,,,
|------------|
|------------|
|------------|
|-7,,,,------|
|-x,,,,--8-5-|
|-5,,,,--6-3-|

Riff 2
|------------------------|
|------------------------|
|------------------------|
|-----7------------------|
--777-7-777-777--777-778-|1X
--555---555-555--555-556-|
  ...   ... ...  ... ... 

Riff 3                              Tag Riff
|-------------------------------|  |-------------------------------|
|-------------------------------|  |-------------------------------|
|-------------------------------|3x|-------------------------------|
|-444---------------------------|  |-444-----------------22222-3---|
|-222--222-222--777-77-3-332-22-|  |-222--222-222-777-77-00000-3-2-|
|-...--000-000--555-55-1-110-00-|  |-...--000-000-555-55-------1-0-|
       ... ...  ... .. . ... ..           ... ... ... ..         .

Altogether do Riff 3 with tag 2X


Give it 5*
Related for Spiel Mit Mir tab