Song name
# A B C D E F G H I J K L M N O P Q R S T U V W X Y Z

Rammstein - Halt tab

-------------------------------------------------------------------------------
                              Rammstein - Halt
-------------------------------------------------------------------------------
Tabbed by:       MartinMessner
Email:           bigbonsai@hotmail.de
song on youtube: *

Tuning:          Drop D

Intro (strongly palmmuted)
e|-------------------------------------|
B|-------------------------------------|
G|-------------------------------------|
D|--0---------0---------0--------1---1-|
A|--0--0-0-0--0--0-0-0--0--0-0-0-1-0-1-|
D|--0--0-0-0--0--0-0-0--0--0-0-0-1-0-1-|x3

e|-------------------------------------|
B|-------------------------------------|
G|-------------------------------1-0---|
D|--0---------0---------0------------3-|
A|--0--0-0-0--0--0-0-0--0--------------|
D|--0--0-0-0--0--0-0-0--0--------------|

The guitar from the intro keeps repeating!


normal guitar
e|-------------------------------------|
B|-------------------------------------|
G|-------------------------------------|
D|--0---------0---------0--------1---1-|
A|--0--0-0-0--0--0-0-0--0--0-0-0-1-0-1-|
D|--0--0-0-0--0--0-0-0--0--0-0-0-1-0-1-|x3

e|-------------------------------------|
B|-------------------------------------|
G|-------------------------------------|
D|--0---------0---------0--------6-5-3-|
A|--0--0-0-0--0--0-0-0--0--------6-5-3-|
D|--0--0-0-0--0--0-0-0--0--------6-4-3-|

.........................................................

guitar (verse)
e|----------------------------------------------------------------|
B|----------------------------------------------------------------|
G|----------------------------------------------------------------|
D|--0-----------3~--0-----------3~--0----------3~--0-----------3~-|
A|--0---0---0-------0---0---0-------0---0---0------0---0---0------|
D|--0---0---0-------0---0---0-------0---0---0------0---0---0------|

piano
e|------------------------|
B|------------------------|
G|--7-6---5-3---3-2---2~--|
D|------7-----5-----3-----|
A|------------------------|
D|------------------------|

.........................................................

guitar (verse)
e|----------------------------------------|
B|----------------------------------------|
G|-----------5------------------2---------|
D|-0---------5---------3--------2---------|
A|-0---------3---------3--------0---------|
D|-0-------------------3------------------|
   D         C         F        A



This is actually the version I play ;D
your Martin
Tap to rate this tab
 
# A B C D E F G H I J K L M N O P Q R S T U V W X Y Z