Rammstein - Zwitter tab

Zwitter

tabbed by Jasper

Drop D

PM = palm mute

intro

E |--------|--------|--------|--------|x4
A |--------|--------|--------|--------|
D |--------|--------|--------|--------|
G |--------|--------|--------|--------|
B |--------|--------|--------|--------|
e |-0-0-0-0|-0-0-5-3|-0-0-0-0|-0-0-1-0|


E |--------|--------|--------|--------|x8
A |--------|--------|--------|--------|
D |--------|--------|--------|--------|
G |-0-0-0-0|-0-0-5-3|-0-0-0-0|-2-3-0-0|
B |-0-0-0-0|-0-0-5-3|-0-0-0-0|-2-3-0-0|
e |-0-0-0-0|-0-0-5-3|-0-0-0-0|-2-3-0-0|
PM| . . . .  . .      . . . .      .  |

verse (2ND half)

E |--------|--------|--------|--------|x4
A |--------|--------|--------|--------|
D |--------|--------|--------|--------|
G |--------|--------|--------|--------|
B |--------|--------|--------|--------|
e |-0-0-0-0|-0-0-5-3|-0-0-0-0|-0-0-1-0|

pre-chorus

E |--------|--------|--------|--------|x4
A |--------|--------|--------|--------|
D |--------|--------|--------|--------|
G |-0-0-0-0|-0-0-5-3|-0-0-0-0|-2-3-0-0|
B |-0-0-0-0|-0-0-5-3|-0-0-0-0|-2-3-0-0|
e |-0-0-0-0|-0-0-5-3|-0-0-0-0|-2-3-0-0|
PM| . . . .  . .      . . . .      .  |

verse (2ND half)

E |--------|--------|--------|--------|x4
A |--------|--------|--------|--------|
D |--------|--------|--------|--------|
G |--------|--------|--------|--------|
B |--------|--------|--------|--------|
e |-0-0-0-0|-0-0-5-3|-0-0-0-0|-0-0-1-0|

pre-chorus

E |--------|--------|--------|--------|x4
A |--------|--------|--------|--------|
D |--------|--------|--------|--------|
G |-0-0-0-0|-0-0-5-3|-0-0-0-0|-2-3-0-0|
B |-0-0-0-0|-0-0-5-3|-0-0-0-0|-2-3-0-0|
e |-0-0-0-0|-0-0-5-3|-0-0-0-0|-2-3-0-0|
PM| . . . .  . .      . . . .      .  |

Chorus

E |--------|--------|--------|--------|
A |--------|--------|--------|--------|
D |88888888|55555555|11111111|3333----|
G |88888888|55555555|11111111|3333--13|(1-3 not 13)
B |66666666|33333333|11111111|111113--|
e |--------|--------|--------|--------|

E |--------|--------|--------|--------|
A |--------|--------|--------|--------|
D |88888888|55555555|--------|--------|
G |88888888|55555555|55555555|55555555|
B |66666666|33333333|55555555|55555555|
e |--------|--------|55555555|55555555|x2

verse (2ND half)

E |--------|--------|--------|--------|x4
A |--------|--------|--------|--------|
D |--------|--------|--------|--------|
G |--------|--------|--------|--------|
B |--------|--------|--------|--------|
e |-0-0-0-0|-0-0-5-3|-0-0-0-0|-0-0-1-0|

pre-chorus

E |--------|--------|--------|--------|x4
A |--------|--------|--------|--------|
D |--------|--------|--------|--------|
G |-0-0-0-0|-0-0-5-3|-0-0-0-0|-2-3-0-0|
B |-0-0-0-0|-0-0-5-3|-0-0-0-0|-2-3-0-0|
e |-0-0-0-0|-0-0-5-3|-0-0-0-0|-2-3-0-0|
PM| . . . .  . .      . . . .      .  |

Chorus

E |--------|--------|--------|--------|
A |--------|--------|--------|--------|
D |88888888|55555555|11111111|3333----|
G |88888888|55555555|11111111|3333--13|(1-3 not 13)
B |66666666|33333333|11111111|111113--|
e |--------|--------|--------|--------|

E |--------|--------|--------|--------|
A |--------|--------|--------|--------|
D |88888888|55555555|--------|--------|
G |88888888|55555555|55555555|55555555|
B |66666666|33333333|55555555|55555555|
e |--------|--------|55555555|55555555|x2

End

E |--------|--------|--------|--------|x8 then fade out
A |--------|--------|--------|--------|
D |--------|--------|--------|--------|
G |-0-0-0-0|-0-0-5-3|-0-0-0-0|-2-3-0-0|
B |-0-0-0-0|-0-0-5-3|-0-0-0-0|-2-3-0-0|
e |-0-0-0-0|-0-0-5-3|-0-0-0-0|-2-3-0-0|
PM| . . . .  . .      . . . .      .  |
Tap to rate this tab
 
# A B C D E F G H I J K L M N O P Q R S T U V W X Y Z