Song name
# A B C D E F G H I J K L M N O P Q R S T U V W X Y Z

Rammstein - Eisenmann tab

-------------------------------------------------------------------------------
			     EISENMANN - Rammstein
-------------------------------------------------------------------------------
Tabbed by: Florencia Trasante
Email: neko.gatikaz.666@gmail.com

Tuning: D-A-D-G-B-e


Intro:

e|------------------------------------------|
B|------------------------------------------|
G|77--7-7--777--7-7--777--7-7--777--7-7/10--|
D|xx--x-x--xxx--x-x--xxx--x-x--xxx--x-x/x---| x6
A|55--5-5--555--5-5--555--5-5--555--5-5/8---|
D|------------------------------------------|


Verse: (00:34)

e|------------------------------------------|
B|------------------------------------------|
G|------------------------------------------|
D|------------------------------------------| x3
A|------------------------------------------|
D|--------------------------------/12s15~\--|


Pre Chorus: (00:54)

e|-------------------------------|
B|-------------------------------|
G|-------------------------------|
D|-------------------------------| x2
A|3-2-0-3-2-0-3-2-0-3-2-0-3-2-3--|
D|-------------------------------|


Chorus: (1:00)

(Rhythm Guitar)
e|-----------------------------------------------------------------|
B|-----------------------------------------------------------------|
G|-----------------------------------------------------------------|
D|8-8-8-8-8-8-8-8-5-5-5-5-5-5-5-5-0-0-0-0-0-0-0-0-0-0-0-0-0-0-0-0--| x3
A|8-8-8-8-8-8-8-8-5-5-5-5-5-5-5-5-0-0-0-0-0-0-0-0-0-0-0-0-0-0-0-0--|
D|8-8-8-8-8-8-8-8-5-5-5-5-5-5-5-5-0-0-0-0-0-0-0-0-0-0-0-0-0-0-0-0--|

e|---------------------------------|
B|---------------------------------|
G|---------------------------------|
D|8-8-8-8-8-8-8-8-5-5-5-5-5-5-5-5--|
A|8-8-8-8-8-8-8-8-5-5-5-5-5-5-5-5--|
D|8-8-8-8-8-8-8-8-5-5-5-5-5-5-5-5--|

(Lead Guitar)
e|----------------------------------------------------------------------------|
B|----------------------------------------------------------------------------|
G|7-7-7-7-7-7-7-7-7-7-7-7-7-7-7-7-14-14-14-14-14-14-14-14-14-14-14-10/12-10~\-|
D|x-x-x-x-x-x-x-x-x-x-x-x-x-x-x-x-x--x--x--x--x--x--x--x--x--x--x---x/x---x\--| x3
A|5-5-5-5-5-5-5-5-5-5-5-5-5-5-5-5-12-12-12-12-12-12-12-12-12-12-12-8/10--8~\--|
D|----------------------------------------------------------------------------|

e|---------------------------------|
B|---------------------------------|
G|7-7-7-7-7-7-7-7-7-7-7-7-7-7-7-7--|
D|x-x-x-x-x-x-x-x-x-x-x-x-x-x-x-x--|
A|5-5-5-5-5-5-5-5-5-5-5-5-5-5-5-5--|
D|---------------------------------|


Riff: (1:20)

e|-----------------------------------------|
B|-----------------------------------------|
G|-----------------------------------------|
D|00--0-0--000--0-0--000--0-0--000--0-0-6--| x4
A|00--0-0--000--0-0--000--0-0--000--0-0-6--|
D|00--0-0--000--0-0--000--0-0--000--0-0-6--|
  ..  . .  ...  . .  ...  . .  ...  . .     


Verse: (1:42)

e|------------------------------------------|
B|------------------------------------------|
G|------------------------------------------|
D|------------------------------------------| x3
A|------------------------------------------|
D|--------------------------------/12s15~\--|


Pre Chorus: (2:02)

e|-------------------------------|
B|-------------------------------|
G|-------------------------------|
D|-------------------------------| x2
A|3-2-0-3-2-0-3-2-0-3-2-0-3-2-3--|
D|-------------------------------|


Chorus: (2:08)

(Rhythm Guitar)
e|-----------------------------------------------------------------|
B|-----------------------------------------------------------------|
G|-----------------------------------------------------------------|
D|8-8-8-8-8-8-8-8-5-5-5-5-5-5-5-5-0-0-0-0-0-0-0-0-0-0-0-0-0-0-0-0--| x3
A|8-8-8-8-8-8-8-8-5-5-5-5-5-5-5-5-0-0-0-0-0-0-0-0-0-0-0-0-0-0-0-0--|
D|8-8-8-8-8-8-8-8-5-5-5-5-5-5-5-5-0-0-0-0-0-0-0-0-0-0-0-0-0-0-0-0--|

e|---------------------------------|
B|---------------------------------|
G|---------------------------------|
D|8-8-8-8-8-8-8-8-5-5-5-5-5-5-5-5--|
A|8-8-8-8-8-8-8-8-5-5-5-5-5-5-5-5--|
D|8-8-8-8-8-8-8-8-5-5-5-5-5-5-5-5--|

(Lead Guitar)
e|----------------------------------------------------------------------------|
B|----------------------------------------------------------------------------|
G|7-7-7-7-7-7-7-7-7-7-7-7-7-7-7-7-14-14-14-14-14-14-14-14-14-14-14-10/12-10~\-|
D|x-x-x-x-x-x-x-x-x-x-x-x-x-x-x-x-x--x--x--x--x--x--x--x--x--x--x---x/x---x\--| x3
A|5-5-5-5-5-5-5-5-5-5-5-5-5-5-5-5-12-12-12-12-12-12-12-12-12-12-12-8/10--8~\--|
D|----------------------------------------------------------------------------|

e|---------------------------------|
B|---------------------------------|
G|7-7-7-7-7-7-7-7-7-7-7-7-7-7-7-7--|
D|x-x-x-x-x-x-x-x-x-x-x-x-x-x-x-x--|
A|5-5-5-5-5-5-5-5-5-5-5-5-5-5-5-5--|
D|---------------------------------|


Riff: (2:26)

e|-----------------------------------------|
B|-----------------------------------------|
G|-----------------------------------------|
D|00--0-0--000--0-0--000--0-0--000--0-0-6--| x2
A|00--0-0--000--0-0--000--0-0--000--0-0-6--|
D|00--0-0--000--0-0--000--0-0--000--0-0-6--|
  ..  . .  ...  . .  ...  . .  ...  . .     


Verse: (2:36)

e|----------------------------------------|
B|----------------------------------------|
G|----------------------------------------|
D|----------------------------------------| x4
A|----------------------------------------|
D|00--0-0--000--0-0--000--0-0--000--0-0--0|
  ..  . .  ...  . .  ...  . .  ...  . .  . 


Chorus: (2:57)

(Rhythm Guitar)
e|-----------------------------------------------------------------|
B|-----------------------------------------------------------------|
G|-----------------------------------------------------------------|
D|8-8-8-8-8-8-8-8-5-5-5-5-5-5-5-5-0-0-0-0-0-0-0-0-0-0-0-0-0-0-0-0--| x3
A|8-8-8-8-8-8-8-8-5-5-5-5-5-5-5-5-0-0-0-0-0-0-0-0-0-0-0-0-0-0-0-0--|
D|8-8-8-8-8-8-8-8-5-5-5-5-5-5-5-5-0-0-0-0-0-0-0-0-0-0-0-0-0-0-0-0--|

e|---------------------------------|
B|---------------------------------|
G|---------------------------------|
D|8-8-8-8-8-8-8-8-5-5-5-5-5-5-5-5--|
A|8-8-8-8-8-8-8-8-5-5-5-5-5-5-5-5--|
D|8-8-8-8-8-8-8-8-5-5-5-5-5-5-5-5--|

(Lead Guitar)
e|----------------------------------------------------------------------------|
B|----------------------------------------------------------------------------|
G|7-7-7-7-7-7-7-7-7-7-7-7-7-7-7-7-14-14-14-14-14-14-14-14-14-14-14-10/12-10~\-|
D|x-x-x-x-x-x-x-x-x-x-x-x-x-x-x-x-x--x--x--x--x--x--x--x--x--x--x---x/x---x\--| x3
A|5-5-5-5-5-5-5-5-5-5-5-5-5-5-5-5-12-12-12-12-12-12-12-12-12-12-12-8/10--8~\--|
D|----------------------------------------------------------------------------|

e|---------------------------------|
B|---------------------------------|
G|7-7-7-7-7-7-7-7-7-7-7-7-7-7-7-7--|
D|x-x-x-x-x-x-x-x-x-x-x-x-x-x-x-x--|
A|5-5-5-5-5-5-5-5-5-5-5-5-5-5-5-5--|
D|---------------------------------|


Riff: (3:15)

e|-----------------------------------------|
B|-----------------------------------------|
G|-----------------------------------------|
D|00--0-0--000--0-0--000--0-0--000--0-0-6--|
A|00--0-0--000--0-0--000--0-0--000--0-0-6--|
D|00--0-0--000--0-0--000--0-0--000--0-0-6--|
  ..  . .  ...  . .  ...  . .  ...  . .     
Tap to rate this tab
 
# A B C D E F G H I J K L M N O P Q R S T U V W X Y Z