Song name
# A B C D E F G H I J K L M N O P Q R S T U V W X Y Z

Rammstein - Fruhling In Paris tab

-------------------------------------------------------------------------------
			     FRUHLING IN PARIS - RAMMSTEIN

Tuning: Drop D

SEQUENCE: R1 x4
	    R2 x1
          R3 x1
          R1 x5
          R2 x1
          R4 x1        
          R1 x3
          R2 x1
          R4 x2  


RIFF1:
e|---------------------------------------------------------------------------|
B|---------------------------------------------------------------------------|
G|---------------------------------------------------------------------------|
D|------7--4--------7--4--------7--4--------7--4--------7--4--------7--4-----|
A|------------4-----------4-----------4-----------4-----------5-----------5--|
D|---4-----------4-----------4-----------4-----------0-----------0-----------|

e|-----------------------|
B|-----------------------|
G|-----------------------|
D|---7--4--------7--4----|
A|---------4-----------4-|
D|4-----------4----------|

RIFF2:
e|---------------------------------------------------------------------------|
B|--------5---------5---------3---------3---------5---------5---------3------|
G|----------6---------6---------4---------4---------6---------6---------4----|
D|------------6---------6---------4---------4---------6---------6---------4--|
A|-----3---------3---------2---------2---------3---------3---------2---------|
D|---------------------------------------------------------------------------|

e|---------------------------------------------------------------------------|
B|---3---------5---------5---------3---------3-------------------------------|
G|-----4---------6---------6---------4---------4-------1---------1---------1-|
D|-------4---------6---------6---------4---------4-------2---------2---------|
A|2---------3---------3---------2---------2----------------2---------2-------|
D|--------------------------------------------------2---------2---------2----|

e|--------------|
B|--------------|
G|--------1-----|
D|2---------2---|
A|--2---------2-|
D|-----2--------|

RIFF3:
e|---------------------------------------------------------------------------|
B|---------------------------------------------------------------------------|
G|---6---------6---------6---------6---------2---------2---------2--------2--|
D|-----7---------7---------7---------7---------4---------4---------4-------4-|
A|-------7---------7---------7---------7---------4---------4---------4------4|
D|7---------7---------7---------7---------4---------4---------4---------4----|

e|---------------------------------------------------------------------------|
B|---------------------------------------------------------------------------|
G|---6---------6---------6---------6---------2---------2---------2--------2--|
D|-----7---------7---------7---------7---------4---------4---------4-------4-|
A|-------7---------7---------7---------7---------4---------4---------4------4|
D|7---------7---------7---------7---------4---------4---------4---------4----|

e|---------------------------------------------------------------------------|
B|---------------------------------------------------------------------------|
G|---1---------1----------1---------1---------2---------2---------2---------2|
D|-----2----------2---------2---------2---------0---------0---------0--------|
A|-------2----------2---------2---------2---------0---------0---------0------|
D|2---------2----------2---------2---------0---------0---------0---------0---|

e|-----|
B|-----|
G|-----|
D|-0---|
A|---0-|
D|-----|

RIFF4 (essentially R3 as power chords and with distortion): 
e|---------------------------------------------------------------------------|
B|---------------------------------------------------------------------------|
G|---------------------------------------------------------------------------|
D|--7---7-7---7-7-7----7---7-7---7-7-7----4---4-4---4-4-4----4---4-4---4-4-4-|
A|--7---7-7---7-7-7----7---7-7---7-7-7----4---4-4---4-4-4----4---4-4---4-4-4-|
D|--7---7-7---7-7-7----7---7-7---7-7-7----4---4-4---4-4-4----4---4-4---4-4-4-|

e|---------------------------------------------------------------------------|
B|---------------------------------------------------------------------------|
G|---------------------------------------------------------------------------|
D|--7---7-7---7-7-7----7---7-7---7-7-7----4---4-4---4-4-4----4---4-4---4-4-4-|
A|--7---7-7---7-7-7----7---7-7---7-7-7----4---4-4---4-4-4----4---4-4---4-4-4-|
D|--7---7-7---7-7-7----7---7-7---7-7-7----4---4-4---4-4-4----4---4-4---4-4-4-|

e|---------------------------------------------------------------------------|
B|---------------------------------------------------------------------------|
G|---------------------------------------------------------------------------|
D|--2---2-2---2-2-2----2---2-2---2-2-2----0---0-0---0-0-0----0---0-0---0-0-0-|
A|--2---2-2---2-2-2----2---2-2---2-2-2----0---0-0---0-0-0----0---0-0---0-0-0-|
D|--2---2-2---2-2-2----2---2-2---2-2-2----0---0-0---0-0-0----0---0-0---0-0-0-|

e|---------------------------------------------------------------------------|
B|---------------------------------------------------------------------------|
G|---------------------------------------------------------------------------|
D|--4---4-4---4-4-4----4---4-4---4-4-4----4---4-4---4-4-4----4---4-4---4-4-4-|
A|--4---4-4---4-4-4----4---4-4---4-4-4----4---4-4---4-4-4----4---4-4---4-4-4-|
D|--4---4-4---4-4-4----4---4-4---4-4-4----4---4-4---4-4-4----4---4-4---4-4-4-|

e|---------------------------------------------------------------------------|
B|---------------------------------------------------------------------------|
G|---------------------------------------------------------------------------|
D|--0---0-0---0-0-0----0---0-0---0-0-0----4---4-4---4-4-4----4---4-4---4-4-4-|
A|--0---0-0---0-0-0----0---0-0---0-0-0----4---4-4---4-4-4----4---4-4---4-4-4-|
D|--0---0-0---0-0-0----0---0-0---0-0-0----4---4-4---4-4-4----4---4-4---4-4-4-|

e|---------------------------------------------------------------------------|
B|---------------------------------------------------------------------------|
G|---------------------------------------------------------------------------|
D|--4---4-4---4-4-4----4---4-4---4-4-4----0---0-0---0-0-0----0---0-0---0-0-0-|
A|--4---4-4---4-4-4----4---4-4---4-4-4----0---0-0---0-0-0----0---0-0---0-0-0-|
D|--4---4-4---4-4-4----4---4-4---4-4-4----0---0-0---0-0-0----0---0-0---0-0-0-|
Tap to rate this tab
 
# A B C D E F G H I J K L M N O P Q R S T U V W X Y Z