Song name
# A B C D E F G H I J K L M N O P Q R S T U V W X Y Z

Rammstein - Ich Will tab

Rammstein - Ich Will

Guitar 1 
(guitar 2 is the same as 1 except 2 variations, on the open d chord its finger on fret
5 on a string and guitar 2 dont play the melodic line in the interlude)

Tuning : DADGBE



INTRO
|--------------------------|--------------------------|--------------------------|--------------------------|
|--------------------------|--------------------------|--------------------------|--------------------------|
|--------------------------|--------------------------|--------------------------|--------------------------|
|--------------------------|--------------------------|--------------------------|--------------------------|
|--------------------------|--------------------------|--------------------------|--------------------------|
|--------------------------|--------------------------|--------------------------|--------------------------|


|--------------------------|--------------------------|--------------------------|--------------------------|
|--------------------------|--------------------------|--------------------------|--------------------------|
|--------------------------|--------------------------|--------------------------|--------------------------|
|--------------------------|--------------------------|-----0--0--0--0--0--------|--0--0--0--0--0--0--0--0--|
|--------------------------|--------------------------|-----0--0--0--0--0--------|--0--0--0--0--0--0--0--0--|
|--------------------------|--------------------------|-----0--0--0--0--0--------|--0--0--0--0--0--0--0--0--|

|--------------------------|--------------------------|--------------------------|--------------------------|
|--------------------------|--------------------------|--------------------------|--------------------------|
|--------------------------|--------------------------|--------------------------|--------------------------|
|-----0--0--0--0--0--------|--0--0--0--0--0--0--0--0--|-----0--0--0--0--0--------|--0--0--0--0--0--0--0--0--|
|-----0--0--0--0--0--------|--0--0--0--0--0--0--0--0--|-----0--0--0--0--0--------|--0--0--0--0--0--0--0--0--|
|-----0--0--0--0--0--------|--0--0--0--0--0--0--0--0--|-----0--0--0--0--0--------|--0--0--0--0--0--0--0--0--|

VERSE 1
|--------------------------|--------------------------|--------------------------|--------------------------|
|--------------------------|--------------------------|--------------------------|--------------------------|
|--------------------------|--------------------------|--------------------------|--------------------------|
|-----0--0--0--0--0--------|-3/5--5--5--3--3--3--1--0-|--------------------------|--------------------------|
|-----0--0--0--0--0--------|-3/5--5--5--3--3--3--1--0-|--------------------------|--------------------------|
|-----0--0--0--0--0--------|-3/5--5--5--3--3--3--1--0-|--------------------------|--------------------------|

|--------------------------|--------------------------|--------------------------|--------------------------|
|--------------------------|--------------------------|--------------------------|--------------------------|
|--------------------------|--------------------------|--------------------------|--------------------------|
|--------------------------|--------------------------|--------------------------|--------------------------|
|--------------------------|--------------------------|--------------------------|--------------------------|
|--------------------------|--------------------------|--------------------------|--------------------------|

|--------------------------|--------------------------|--------------------------|--------------------------|
|--------------------------|--------------------------|--------------------------|--------------------------|
|--------------------------|--------------------------|--------------------------|--------------------------|
|--------------------------|--------------------------|--------------------------|--------------------------|
|--------------------------|--------------------------|--------------------------|--------------------------|
|--------------------------|--------------------------|--------------------------|--------------------------|

|--------------------------|--------------------------|--------------------------|--------------------------|
|--------------------------|--------------------------|--------------------------|--------------------------|
|--------------------------|--------------------------|--------------------------|--------------------------|
|--------------------------|--------------------------|--------------------------|--------------------------|
|--------------------------|--------------------------|--------------------------|--------------------------|
|--------------------------|--------------------------|--------------------------|--------------------------|

|--------------------------|--------------------------|--------------------------|--------------------------|
|--------------------------|--------------------------|--------------------------|--------------------------|
|--------------------------|--------------------------|--------------------------|--------------------------|
|--------------------------|--------------------------|-----0--0--0--0--0--------|--0--0--0--0--0--0--0--0--|
|--------------------------|--------------------------|-----0--0--0--0--0--------|--0--0--0--0--0--0--0--0--|
|--------------------------|--------------------------|-----0--0--0--0--0--------|--0--0--0--0--0--0--0--0--|


|--------------------------|--------------------------|--------------------------|--------------------------|
|--------------------------|--------------------------|--------------------------|--------------------------|
|--------------------------|--------------------------|--------------------------|--------------------------|
|-----0--0--0--0--0--------|--0--0--0--0--0--0--0--0--|-----0--0--0--0--0--------|--0--0--0--0--0--0--0--0--|
|-----0--0--0--0--0--------|--0--0--0--0--0--0--0--0--|-----0--0--0--0--0--------|--0--0--0--0--0--0--0--0--|
|-----0--0--0--0--0--------|--0--0--0--0--0--0--0--0--|-----0--0--0--0--0--------|--0--0--0--0--0--0--0--0--|

VERSE 2
|--------------------------|--------------------------|--------------------------|--------------------------|
|--------------------------|--------------------------|--------------------------|--------------------------|
|--------------------------|--------------------------|--------------------------|--------------------------|
|-----0--0--0--0--0--------|-3/5--5--5--3--3--3--1--0-|-----0--0--0--0--0--------|--------------------------|
|-----0--0--0--0--0--------|-3/5--5--5--3--3--3--1--0-|-----0--0--0--0--0--------|--------------------------|
|-----0--0--0--0--0--------|-3/5--5--5--3--3--3--1--0-|-----0--0--0--0--0--------|--------------------------|

|--------------------------|--------------------------|--------------------------|--------------------------|
|--------------------------|--------------------------|--------------------------|--------------------------|
|--------------------------|--------------------------|--------------------------|--------------------------|
|-----0--0--0--0--0--------|--------------------------|-----0--0--0--0--0--------|--------------------------|
|-----0--0--0--0--0--------|--------------------------|-----0--0--0--0--0--------|--------------------------|
|-----0--0--0--0--0--------|--------------------------|-----0--0--0--0--0--------|--------------------------|

|--------------------------|--------------------------|--------------------------|--------------------------|
|--------------------------|--------------------------|--------------------------|--------------------------|
|--------------------------|--------------------------|--------------------------|--------------------------|
|-----0--0--0--0--0--------|--------------------------|-----0--0--0--0--0--------|--------------------------|
|-----0--0--0--0--0--------|--------------------------|-----0--0--0--0--0--------|--------------------------|
|-----0--0--0--0--0--------|--------------------------|-----0--0--0--0--0--------|--------------------------|

|--------------------------|--------------------------|--------------------------|--------------------------|
|--------------------------|--------------------------|--------------------------|--------------------------|
|--------------------------|--------------------------|--------------------------|--------------------------|
|-----0--0--0--0--0--------|--------------------------|-----0--0--0--0--0--------|--------------------------|
|-----0--0--0--0--0--------|--------------------------|-----0--0--0--0--0--------|--------------------------|
|-----0--0--0--0--0--------|--------------------------|-----0--0--0--0--0--------|--------------------------|

CHORUS
|--------------------------|--------------------------|--------------------------|--------------------------|
|--------------------------|--------------------------|--------------------------|--------------------------|
|--------------------------|--------------------------|--------------------------|--------------------------|
|-----0--0--0--0--0--------|--------------------------|--0--0--0--0--0--0--0--0-/|/--8--8--8--5--5--5--7--7-|
|-----0--0--0--0--0--------|--------------------------|--0--0--0--0--0--0--0--0-/|/--8--8--8--5--5--5--7--7-|
|-----0--0--0--0--0--------|--------------------------|--0--0--0--0--0--0--0--0-/|/--8--8--8--5--5--5--7--7-|
                                                                               SLIDE

|--------------------------|--------------------------|--------------------------|--------------------------|
|--------------------------|--------------------------|--------------------------|--------------------------|
|--------------------------|--------------------------|--------------------------|--------------------------|
|--0--0--0--0--0--0--0--0-/|/--8--8--8--10-10-10-7--7-|--0--0--0--0--0--0--0--0-/|/--8--8--8--5--5--5--7--7-|
|--0--0--0--0--0--0--0--0-/|/--8--8--8--10-10-10-7--7-|--0--0--0--0--0--0--0--0-/|/--8--8--8--5--5--5--7--7-|
|--0--0--0--0--0--0--0--0-/|/--8--8--8--10-10-10-7--7-|--0--0--0--0--0--0--0--0-/|/--8--8--8--5--5--5--7--7-|
                         SLIDE                                                 SLIDE

|--------------------------|--------------------------|--------------------------|--------------------------|
|--------------------------|--------------------------|--------------------------|--------------------------|
|--------------------------|--------------------------|--------------------------|--------------------------|
|--0--0--0--0--0--0--0--0-/|/--8--8--8--10-10-10-7--7-|--0--0--0--0--0--0--0--0-/|/--8--8--8--5--5--5--7--7-|
|--0--0--0--0--0--0--0--0-/|/--8--8--8--10-10-10-7--7-|--0--0--0--0--0--0--0--0-/|/--8--8--8--5--5--5--7--7-|
|--0--0--0--0--0--0--0--0-/|/--8--8--8--10-10-10-7--7-|--0--0--0--0--0--0--0--0-/|/--8--8--8--5--5--5--7--7-|
                         SLIDE                                                 SLIDE

|--------------------------|--------------------------|--------------------------|--------------------------|
|--------------------------|--------------------------|--------------------------|--------------------------|
|--------------------------|--------------------------|--------------------------|--------------------------|
|--0--0--0--0--0--0--0--0-/|/--8--8--8--10-10-10-7--7-|--0--0--0--0--0--0--0--0-/|/--8--8--8--5--5--5--7--7-|
|--0--0--0--0--0--0--0--0-/|/--8--8--8--10-10-10-7--7-|--0--0--0--0--0--0--0--0-/|/--8--8--8--5--5--5--7--7-|
|--0--0--0--0--0--0--0--0-/|/--8--8--8--10-10-10-7--7-|--0--0--0--0--0--0--0--0-/|/--8--8--8--5--5--5--7--7-|
                         SLIDE                                                 SLIDE
CODA
|--------------------------|--------------------------|--------------------------|--------------------------|
|--------------------------|--------------------------|--------------------------|--------------------------|
|--------------------------|--------------------------|--------------------------|--------------------------|
|--0--0--0--0--0--0--0--0-/|/--8--8--8--10-10-10-7--7-|-----0--0--0--0--0--------|--0--0--0--0--0--0--0--0--|
|--0--0--0--0--0--0--0--0-/|/--8--8--8--10-10-10-7--7-|-----0--0--0--0--0--------|--0--0--0--0--0--0--0--0--|
|--0--0--0--0--0--0--0--0-/|/--8--8--8--10-10-10-7--7-|-----0--0--0--0--0--------|--0--0--0--0--0--0--0--0--|
                         SLIDE
|--------------------------|--------------------------|--------------------------|--------------------------|
|--------------------------|--------------------------|--------------------------|--------------------------|
|--------------------------|--------------------------|--------------------------|--------------------------|
|-----0--0--0--0--0--------|--0--0--0--0--0--0--0--0--|-----0--0--0--0--0--------|--0--0--0--0--0--0--0--0--|
|-----0--0--0--0--0--------|--0--0--0--0--0--0--0--0--|-----0--0--0--0--0--------|--0--0--0--0--0--0--0--0--|
|-----0--0--0--0--0--------|--0--0--0--0--0--0--0--0--|-----0--0--0--0--0--------|--0--0--0--0--0--0--0--0--|

INTERLUDE                                              CLEAN, NO DISTORTION
|--------------------------|--------------------------|--------------------------|--------------------------|
|--------------------------|--------------------------|--------------------------|--------------------------|
|--------------------------|--------------------------|--------------------------|--------------------------|
|-----0--0--0--0--0--------|-3/5--5--5--3--3--3--1--0-|--------0-----------0-----|--------0-----------0-----|
|-----0--0--0--0--0--------|-3/5--5--5--3--3--3--1--0-|-----0-----0-----0-----0--|-----0-----0-----0-----0--|
|-----0--0--0--0--0--------|-3/5--5--5--3--3--3--1--0-|--0-----------0-----------|--0-----------0-----------|

|--------------------------|--------------------------|--------------------------|--------------------------|
|--------------------------|--------------------------|--------------------------|--------------------------|
|--------------------------|--------------------------|--------------------------|--------------------------|
|--------8-----------8-----|--------8-----------------|--------5-----------5-----|--------5-----------5-----|
|-----8-----8-----8-----8--|-----8-----8-----8-----X--|-----5-----5-----5-----5--|-----5-----5-----5-----5--|
|--8-----------8-----------|--8-----------8-----7-----|--5-----------5-----------|--5-----------5-----------|

|--------------------------|--------------------------|--------------------------|--------------------------|
|--------------------------|--------------------------|--------------------------|--------------------------|
|--------------------------|--------------------------|--------------------------|--------------------------|
|--------7-----------7-----|--------7-----------7-----|--------0-----------0-----|--------0-----------0-----|
|-----7-----7-----7-----7--|-----7-----7-----7-----7--|-----0-----0-----0-----0--|-----0-----0-----0-----0--|
|--7-----------7-----------|--7-----------7-----------|--0-----------0-----------|--0-----------0-----------|

|--------------------------|--------------------------|--------------------------|--------------------------|
|--------------------------|--------------------------|--------------------------|--------------------------|
|--------------------------|--------------------------|--------------------------|--------------------------|
|--------8-----------8-----|--------8-----------------|--------5-----------5-----|--------5-----------5-----|
|-----8-----8-----8-----8--|-----8-----8-----8-----X--|-----5-----5-----5-----5--|-----5-----5-----5-----5--|
|--8-----------8-----------|--8-----------8-----7-----|--5-----------5-----------|--5-----------5-----------|

BRIDGE
|--------------------------|-------------------|
|--------------------------|-------------------|
|--------------------------|-------------------|
|--------7-----------7-----|------7-------7----|
|-----7-----7-----7-----7--|----7---7---7---7--|
|--7-----------7-----------|--7-------7--------|

CHORUS
|--------------------------|--------------------------|--------------------------|
|--------------------------|--------------------------|--------------------------|
|--------------------------|--------------------------|--------------------------|
|--------------------------|--0--0--0--0--0--0--0--0-/|/--8--8--8--5--5--5--7--7-|
|--------------------------|--0--0--0--0--0--0--0--0-/|/--8--8--8--5--5--5--7--7-|
|--------------------------|--0--0--0--0--0--0--0--0-/|/--8--8--8--5--5--5--7--7-|
                                                                               SLIDE





|--------------------------|--------------------------|--------------------------|--------------------------|
|--------------------------|--------------------------|--------------------------|--------------------------|
|--------------------------|--------------------------|--------------------------|--------------------------|
|--0--0--0--0--0--0--0--0-/|/--8--8--8--10-10-10-7--7-|--0--0--0--0--0--0--0--0-/|/--8--8--8--5--5--5--7--7-|
|--0--0--0--0--0--0--0--0-/|/--8--8--8--10-10-10-7--7-|--0--0--0--0--0--0--0--0-/|/--8--8--8--5--5--5--7--7-|
|--0--0--0--0--0--0--0--0-/|/--8--8--8--10-10-10-7--7-|--0--0--0--0--0--0--0--0-/|/--8--8--8--5--5--5--7--7-|
                         SLIDE                                                 SLIDE

|--------------------------|--------------------------|--------------------------|--------------------------|
|--------------------------|--------------------------|--------------------------|--------------------------|
|--------------------------|--------------------------|--------------------------|--------------------------|
|--0--0--0--0--0--0--0--0-/|/--8--8--8--10-10-10-7--7-|--0--0--0--0--0--0--0--0-/|/--8--8--8--5--5--5--7--7-|
|--0--0--0--0--0--0--0--0-/|/--8--8--8--10-10-10-7--7-|--0--0--0--0--0--0--0--0-/|/--8--8--8--5--5--5--7--7-|
|--0--0--0--0--0--0--0--0-/|/--8--8--8--10-10-10-7--7-|--0--0--0--0--0--0--0--0-/|/--8--8--8--5--5--5--7--7-|
                         SLIDE                                                 SLIDE

|--------------------------|--------------------------|--------------------------|--------------------------|
|--------------------------|--------------------------|--------------------------|--------------------------|
|--------------------------|--------------------------|--------------------------|--------------------------|
|--0--0--0--0--0--0--0--0-/|/--8--8--8--10-10-10-7--7-|--0--0--0--0--0--0--0--0-/|/--8--8--8--5--5--5--7--7-|
|--0--0--0--0--0--0--0--0-/|/--8--8--8--10-10-10-7--7-|--0--0--0--0--0--0--0--0-/|/--8--8--8--5--5--5--7--7-|
|--0--0--0--0--0--0--0--0-/|/--8--8--8--10-10-10-7--7-|--0--0--0--0--0--0--0--0-/|/--8--8--8--5--5--5--7--7-|
                         SLIDE                                                 SLIDE
CODA
|--------------------------|--------------------------|--------------------------|--------------------------|
|--------------------------|--------------------------|--------------------------|--------------------------|
|--------------------------|--------------------------|--------------------------|--------------------------|
|--0--0--0--0--0--0--0--0-/|/--8--8--8--10-10-10-7--7-|-----0--0--0--0--0--------|--0--0--0--0--0--0--0--0--|
|--0--0--0--0--0--0--0--0-/|/--8--8--8--10-10-10-7--7-|-----0--0--0--0--0--------|--0--0--0--0--0--0--0--0--|
|--0--0--0--0--0--0--0--0-/|/--8--8--8--10-10-10-7--7-|-----0--0--0--0--0--------|--0--0--0--0--0--0--0--0--|
                         SLIDE

OUTRO

|--------------------------|--------------------------|
|--------------------------|--------------------------|
|--------------------------|--------------------------|
|-----0--0--0--0--0--------|-3/5--5--5--3--3--3--0--1-|
|-----0--0--0--0--0--------|-3/5--5--5--3--3--3--0--1-|
|-----0--0--0--0--0--------|-3/5--5--5--3--3--3--0--1-|

Member of Rumbling stones (rammstein tribute band)
SS_DivisionDasReich@yahoo.dk for any comments
Tap to rate this tab
# A B C D E F G H I J K L M N O P Q R S T U V W X Y Z