Guitaretab - guitar tabs
Song name
# A B C D E F G H I J K L M N O P Q R S T U V W X Y Z

Rammstein - Spiel Mit Mir tab

Intro: Keyboard arr. for Gtr.

e|------------------------------------------------------------|
B|------------------------------------------------------------|
G|------------------------------------------------------------|x5
D|------------------------------------------------------------|
A|---2-------------------------------2------------------------|
E|---0-------------------------------0------------------------|

Keiboard for Gtr. at 00:59 min.

e|------------------------------------------------------------|
B|------------------------------------------------------------|
G|---------16-15-----------16-15-14---------------------------|x1
D|---14-14-----------14-14------------------------------------|
A|------------------------------------------------------------|
E|------------------------------------------------------------|
 pm. .  .  .  .      .  .  .  .  .


Mein Riff:
 01:01 min.

e|------------------------------------------------------------|
B|------------------------------------------------------------|
G|------------------------------------------------------------|
D|------------2-----------------------------------------------|x4
A|---2-2-2----2--2-2---2-2-2----2-2-2--2-2---3-3---3-3--------|
E|---0-0-0-------0-0---0-0-0----0-0-0--0-0---1-1---1-1--------|
 pm. . . .       . .   . . .    . . .  . .   . .   . .


01:26 min.

e|------------------------------------------------------------|
B|------------------------------------------------------------|
G|------------------------------------------------------------|x1
D|------------7-----------------------------------------------|
A|---7-7-7----7--7-7---7-7-7----7-7-7--7-7--8--8-8-5--5-5-----|
E|---5-5-5-------5-5---5-5-5----5-5-5--5-5--6--6-6-3--3-3-----|
 pm. . . .       . .   . . .    . . .  . .  .  . . .  . .

e|------------------------------------------------------------|
B|------------------------------------------------------------|
G|------------------------------------------------------------|x1
D|------------7-----------------------------------------------|
A|---7-7-7----7--7-7---7-7-7----7-7-7--7-7--8-----------------|
E|---5-5-5-------5-5---5-5-5----5-5-5--5-5--6-----------------|
 pm. . . .       . .   . . .    . . .  . .  .


01:38 min.

e|------------------------------------------------------------|
B|------------------------------------------------------------|
G|------------------------------------------------------------|
D|------------2-----------------------------------------------|x4
A|---2-2-2----2--2-2---2-2-2----2-2-2--2-2---3-3---3-3--------|
E|---0-0-0-------0-0---0-0-0----0-0-0--0-0---1-1---1-1--------|
 pm. . . .       . .   . . .    . . .  . .   . .   . .


02:03 min.

e|------------------------------------------------------------|
B|------------------------------------------------------------|
G|------------------------------------------------------------|x1
D|------------7-----------------------------------------------|
A|---7-7-7----7--7-7---7-7-7----7-7-7--7-7--8--8-8-5--5-5-----|
E|---5-5-5-------5-5---5-5-5----5-5-5--5-5--6--6-6-3--3-3-----|
 pm. . . .       . .   . . .    . . .  . .  .  . . .  . .

e|------------------------------------------------------------|
B|------------------------------------------------------------|
G|------------------------------------------------------------|x1
D|------------7-----------------------------------------------|
A|---7-7-7----7--7-7---7-7-7----7-7-7--7-7--8-----------------|
E|---5-5-5-------5-5---5-5-5----5-5-5--5-5--6-----------------|
 pm. . . .       . .   . . .    . . .  . .  .


02:15 min. Note:(Play one of this two versions)

1st version

e|------------------------------------------------------------|
B|------------------------------------------------------------|
G|------------------------------------------------------------|x3
D|------------------------------------------------------------|
A|---9-9-9-----2-2-2--2-2-2----7-7-7--7-7--3--3-3--2--2-2-----|
E|---7-7-7-----0-0-0--0-0-0----5-5-5--5-5--1--1-1--0--0-0-----|
 pm. . . .     . . .  . . .    . . .  . .  .  . .  .  . .


2nd version

e|------------------------------------------------------------|
B|------------------------------------------------------------|
G|------------------------------------------------------------|x3
D|---4-4-4----------------------------------------------------|
A|---2-2-2-----2-2-2--2-2-2----7-7-7--7-7--3--3-3--2--2-2-----|
E|-------------0-0-0--0-0-0----5-5-5--5-5--1--1-1--0--0-0-----|
 pm. . . .     . . .  . . .    . . .  . .  .  . .  .  . .




02:34min

1st version

e|------------------------------------------------------------|
B|------------------------------------------------------------|
G|------------------------------------------------------------|x1
D|-----------------------------------------3------------------|
A|---9-9-9-----2-2-2--2-2-2----7-7-7--7-7--3-------2----------|
E|---7-7-7-----0-0-0--0-0-0----5-5-5--5-5--1-------0----------|
 pm. . . .     . . .  . . .    . . .  . .          .  

                            or
 
2nd version

e|------------------------------------------------------------|
B|------------------------------------------------------------|
G|------------------------------------------------------------|x1
D|---4-4-4---------------------------------3------------------|
A|---2-2-2-----2-2-2--2-2-2----7-7-7--7-7--3-------2----------|
E|-------------0-0-0--0-0-0----5-5-5--5-5--1-------0----------|
 pm. . . .     . . .  . . .    . . .  . .          .  


Gtr. solo:

02:52 min.
[ Tab from: http://www.guitaretab.com/r/rammstein/285366.html ]
e|------------------------------------------------------------|
B|--h12p0h12p0h12p0h12p0h12p0h12p0h12p0h12p0h12p0h12/15~~~~~--|
G|------------------------------------------------------------|
D|------------------------------------------------------------|
A|------------------------------------------------------------|
E|------------------------------------------------------------|



03:17 min

e|------------------------------------------------------------|
B|------------------------------------------------------------|
G|------------------------------------------------------------|
D|------------2-----------------------------------------------|x4
A|---2-2-2----2--2-2---2-2-2----2-2-2--2-2---3-3---3-3--------|
E|---0-0-0-------0-0---0-0-0----0-0-0--0-0---1-1---1-1--------|
 pm. . . .       . .   . . .    . . .  . .   . .   . .



03:41 min

   "Spiel____________ ein Spiel  mit  mir"
e|------------------------------------------------------------|
B|------------------------------------------------------------|
G|------------------------------------------------------------|
D|------------------------------------------------------------|
A|--------------------------------8----5----------------------|
E|--------------------------------6----3----------------------|




03:48 min

e|------------------------------------------------------------|    
B|------------------------------------------------------------|        
G|------------------------------------------------------------|x1
D|------------7-----------------------------------------------|
A|---7-7-7----7--7-7---7-7-7----7-7-7--7-7--8-----------------|
E|---5-5-5-------5-5---5-5-5----5-5-5--5-5--6-----------------|
 pm. . . .       . .   . . .    . . .  . .  .



03:53 min

1st version

e|------------------------------------------------------------|
B|------------------------------------------------------------|
G|------------------------------------------------------------|x3
D|------------------------------------------------------------|
A|---9-9-9-----2-2-2--2-2-2----7-7-7--7-7--3--3-3--2--2-2-----|
E|---7-7-7-----0-0-0--0-0-0----5-5-5--5-5--1--1-1--0--0-0-----|
 pm. . . .     . . .  . . .    . . .  . .  .  . .  .  . .

                         or
2nd version

e|------------------------------------------------------------|
B|------------------------------------------------------------|
G|------------------------------------------------------------|x3
D|---4-4-4----------------------------------------------------|
A|---2-2-2-----2-2-2--2-2-2----7-7-7--7-7--3--3-3--2--2-2-----|
E|-------------0-0-0--0-0-0----5-5-5--5-5--1--1-1--0--0-0-----|
 pm. . . .     . . .  . . .    . . .  . .  .  . .  .  . .




04:12 min

1st version

e|------------------------------------------------------------|
B|------------------------------------------------------------|
G|------------------------------------------------------------|x1
D|-----------------------------------------3------------------|
A|---9-9-9-----2-2-2--2-2-2----7-7-7--7-7--3-------2----------|
E|---7-7-7-----0-0-0--0-0-0----5-5-5--5-5--1-------0----------|
 pm. . . .     . . .  . . .    . . .  . .          .  

                            or
2nd version

e|------------------------------------------------------------|
B|------------------------------------------------------------|
G|------------------------------------------------------------|x1
D|---4-4-4---------------------------------3------------------|
A|---2-2-2-----2-2-2--2-2-2----7-7-7--7-7--3-------2----------|
E|-------------0-0-0--0-0-0----5-5-5--5-5--1-------0----------|
 pm. . . .     . . .  . . .    . . .  . .          . 



04:19 min

1st version  

e|------------------------------------------------------------|
B|------------------------------------------------------------|
G|------------------------------------------------------------|x3
D|------------------------------------------------------------|
A|---9-9-9-----2-2-2--2-2-2----7-7-7--7-7--3--3-3--2--2-2-----|
E|---7-7-7-----0-0-0--0-0-0----5-5-5--5-5--1--1-1--0--0-0-----|
 pm. . . .     . . .  . . .    . . .  . .  .  . .  .  . .

                         or
2nd version

e|------------------------------------------------------------|
B|------------------------------------------------------------|
G|------------------------------------------------------------|x3
D|---4-4-4----------------------------------------------------|
A|---2-2-2-----2-2-2--2-2-2----7-7-7--7-7--3--3-3--2--2-2-----|
E|-------------0-0-0--0-0-0----5-5-5--5-5--1--1-1--0--0-0-----|
 pm. . . .     . . .  . . .    . . .  . .  .  . .  .  . .



04:37 min


1st version

e|------------------------------------------------------------|
B|------------------------------------------------------------|
G|------------------------------------------------------------|x1
D|-----------------------------------------3------------------|
A|---9-9-9-----2-2-2--2-2-2----7-7-7--7-7--3-------2----------|
E|---7-7-7-----0-0-0--0-0-0----5-5-5--5-5--1-------0----------|
 pm. . . .     . . .  . . .    . . .  . .          .  

                            or
2nd version

e|------------------------------------------------------------|
B|------------------------------------------------------------|
G|------------------------------------------------------------|x1
D|---4-4-4---------------------------------3------------------|
A|---2-2-2-----2-2-2--2-2-2----7-7-7--7-7--3-------2----------|
E|-------------0-0-0--0-0-0----5-5-5--5-5--1-------0----------|
 pm. . . .     . . .  . . .    . . .  . .          . 

 
Tabbed by Ivonator ;)

Related for Spiel Mit Mir tab
Spiel Mit Mir chords by Rammstein